Song name
# A B C D E F G H I J K L M N O P Q R S T U V W X Y Z

Apron - Broken Child tab

Apron
Broken Child

Drop D Tuning

Just listen to the Song to get the right timing.

Intro/Pre-Chorus

"i want a new try"
e|--------------------------------------------------|
B|--------------------------------------------------|
G|-7-7-7--6-6-6--3-3-3--22--9-9---------------------|
D|-x-x-x--x-x-x--x-x-x--xx--x-x---  <---Pre-Chrous--| 4x
A|-5-5-5--4-4-4--1-1-1--00--7-7---------------------|
D|--------------------------------------------------|
play the first 3 times muted


I'm not sure if it's 100% corect but i think it's pretty close.
Verse
e|--------------------------------------------------------------------------------------------------|
B|--------------------------------------------------------------------------------------------------|
G|------6-------6-----------9-------9-----------7-------7-------------10---------10-(10-10-10b11r10)|
D|--3-------3-------3---7-------7-------7---6-------6-------6----9----------9-----------------------|
A|4---4---4---4---4---8---8---8---8---8--\7---7---7---7---7--/10---10----10---10--------------------|
D|--------------------------------------------------------------------------------------------------|
P.M.->whole verse through except last 4 notes


Chorus
e|---------------------------|
B|---------------------------|
G|---------------------------|
D|-0-3-6-5-0-3-6-5-6666------|
A|-0-3-6-5-0-3-6-5-6666------|
D|-0-3-6-5-0-3-6-5-6666------|

e|---------------------------|
B|---------------------------|
G|---------------------------|
D|-0-3-6-5-0-3-6-5-6-6-------|
A|-0-3-6-5-0-3-6-5-6-6-------|
D|-0-3-6-5-0-3-6-5-6-6-------|


Bridge
e|---------------------------------|
B|---------------------------------|
G|---------------------------------|
D|-0~-00-3-0--3-0-3-0--3-0-3-0-5-0-|
A|-0~-00---------------------------|  x4
D|-0~-00---------------------------|
P.M.     - -  - - - -  - - - - - -

e|--------------------------------|
B|--------------------------------|
G|--------------------------------|
D|-3-0--3-0-3-0--3-0-3-0-5-0------|   x4
A|-3-0--3-0-3-0--3-0-3-0-5-0------|
D|-3-0--3-0-3-0--3-0-3-0-5-0------|


End with
e|--------------------------------|
B|--------------------------------|
G|--------------------------------|
D|-0-3----------------------------|
A|-0-3-00-0-0000------------------|
D|-0-3-00-0-0000------------------|
Tap to rate this tab
# A B C D E F G H I J K L M N O P Q R S T U V W X Y Z