Song name
# A B C D E F G H I J K L M N O P Q R S T U V W X Y Z

Apulanta - Odotus tab

----------------------------------------------------------------------------
                       Apulanta-Odotus
----------------------------------------------------------------------------
Tuning: eb,Bb,Gb,Db,Ab,Eb (puol sävelaskelta alas)
Tabbed by: Camillamazilla

Intro:
eb|---------------------------------------------------------------------|
Bb|-------------------------------0-------------------------------------|
Gb|--------------------6--6------6-6----------------------6--6--6--6--6-|
Db|--4--4-----4--4----4--4-4----0---0----4--4-----4--4---4--4--4--4--4--|2x
Ab|-4--4-4---4--4-4--5--5--(5)-4-----4--4--4-4---4--4-4-5--5--5--5--5--5|
Eb|2--2---2-0--0---0--------5-5--------2--2---2-0--0---0----------------|

1.säkeistö
eb|------------------------------------|
Bb|-------------------------------0----|
Gb|--------------------6--6------6-6---|
Db|--4--4-----4--4----4--4-4----0---0--| 3x
Ab|-4--4-4---4--4-4--5--5--(5)-4-----4-|
Eb|2--2---2-0--0---0--------5-5--------|

eb|---------------------------------|
Bb|---------------------------------|
Gb|-------------------6--6--6--6--6-|
Db|--4--4-----4--4---4--4--4--4--4--| 1x
Ab|-4--4-4---4--4-4-5--5--5--5--5--5|
Eb|2--2---2-0--0---0----------------|

Kertsi: (1.säkeistön riffi soi hiljaa taustalla)

eb|----------------------------------------------------------------|
Bb|----------------------------------------------------------------|
Gb|--------------------------------7-7-7-7-7-7-7-7(6-6-6-6-6-6-6-6)|
Db|4-4-4-4-4-4-4-4-2-2-2-2-2-2-2-2-7-7-7-7-7-7-7-7-7-7-7-7-7-7-7-7-| 3x
Ab|4-4-4-4-4-4-4-4-2-2-2-2-2-2-2-2-5-5-5-5-5-5-5-5-7-7-7-7-7-7-7-7-|
Eb|2-2-2-2-2-2-2-2-0-0-0-0-0-0-0-0-----------------5-5-5-5-5-5-5-5-|

eb|----------------------------------------------------------------|
Bb|----------------------------------------------------------------|
Gb|--------------------------------7-7-7-7-7-7-7-7-7-7-7-7-7-7-7-7-|
Db|4-4-4-4-4-4-4-4-2-2-2-2-2-2-2-2-7-7-7-7-7-7-7-7-7-7-7-7-7-7-7-7-| 1x
Ab|4-4-4-4-4-4-4-4-2-2-2-2-2-2-2-2-5-5-5-5-5-5-5-5-5-5-5-5-5-5-5-5-|
Eb|2-2-2-2-2-2-2-2-0-0-0-0-0-0-0-0---------------------------------|

2.säkeistö

eb|------------------------------------|
Bb|-------------------------------0----|
Gb|--------------------6--6------6-6---|
Db|--4--4-----4--4----4--4-4----0---0--| 3x
Ab|-4--4-4---4--4-4--5--5--(5)-4-----4-|
Eb|2--2---2-0--0---0--------5-5--------|

eb|---------------------------------|
Bb|---------------------------------|
Gb|-------------------6--6--6--6--6-|
Db|--4--4-----4--4---4--4--4--4--4--| 1x
Ab|-4--4-4---4--4-4-5--5--5--5--5--5|
Eb|2--2---2-0--0---0----------------|

2.säkeistön taustalla soi hiljaa (kuuntele kohdat)

eb|----------|    eb|----------| |---------------|
Bb|----------|    Bb|-2/5-5-3-2| |---------------|
Gb|----------|    Gb|----------| |7-7-7-7-7-7-7-7|
Db|-2/4-4-2-0| &  Db|----------| |7-7-7-7-7-7-7-7|
Ab|----------|    Ab|----------| |5-5-5-5-5-5-5-5|
Eb|----------|    Eb|----------| |---------------|
                                pm.............
Kertsi: (taustalla taas se nypläys)
eb|----------------------------------------------------------------|
Bb|----------------------------------------------------------------|
Gb|--------------------------------7-7-7-7-7-7-7-7(6-6-6-6-6-6-6-6)|
Db|4-4-4-4-4-4-4-4-2-2-2-2-2-2-2-2-7-7-7-7-7-7-7-7-7-7-7-7-7-7-7-7-| 3x
Ab|4-4-4-4-4-4-4-4-2-2-2-2-2-2-2-2-5-5-5-5-5-5-5-5-7-7-7-7-7-7-7-7-|
Eb|2-2-2-2-2-2-2-2-0-0-0-0-0-0-0-0-----------------5-5-5-5-5-5-5-5-|

eb|----------------------------------------------------------------|
Bb|----------------------------------------------------------------|
Gb|--------------------------------7-7-7-7-7-7-7-7-7-7-7-7-7-7-7-7-|
Db|4-4-4-4-4-4-4-4-2-2-2-2-2-2-2-2-7-7-7-7-7-7-7-7-7-7-7-7-7-7-7-7-| 1x
Ab|4-4-4-4-4-4-4-4-2-2-2-2-2-2-2-2-5-5-5-5-5-5-5-5-5-5-5-5-5-5-5-5-|
Eb|2-2-2-2-2-2-2-2-0-0-0-0-0-0-0-0---------------------------------|

Soolo:
eb|------------------------------------------------------------------|
Bb|9b-9b-9~---------------------------------------9b-9~--------------|
Gb|------------------------------------------------------------------|
Db|--------11--9--11--11/12--11--7-9h11h12-11~-9--------11--9--11/12-|
Ab|------------------------------------------------------------------|
Eb|------------------------------------------------------------------|

eb|---------|
Bb|---------|
Gb|---------|
Db|-11\7-7--|
Ab|---------|
Eb|---------|

Soolon tausta:
eb|----------------------------------------------------------------|
Bb|----------------------------------------------------------------|
Gb|--------------------------------7-7-7-7-7-7-7-7(6-6-6-6-6-6-6-6)|
Db|4-4-4-4-4-4-4-4-2-2-2-2-2-2-2-2-7-7-7-7-7-7-7-7-7-7-7-7-7-7-7-7-| 2x
Ab|4-4-4-4-4-4-4-4-2-2-2-2-2-2-2-2-5-5-5-5-5-5-5-5-7-7-7-7-7-7-7-7-|
Eb|2-2-2-2-2-2-2-2-0-0-0-0-0-0-0-0-----------------5-5-5-5-5-5-5-5-|

Välisoitto:

eb|-------------------------------------------------------------|
Bb|-------------------------------------------------------------|
Gb|-----6-----6-4-6-----6---6-4-6----6-----6-4-6-----6-----6-4-6|
Db|---4-----4---------4---4--------6-----6---------6-----6------| 2x
Ab|-5-----5---------5---5--------4-----4---------4-----4--------|
Eb|-------------------------------------------------------------|

Kertsi: (taustalla taas se nypläys)
eb|----------------------------------------------------------------|
Bb|----------------------------------------------------------------|
Gb|--------------------------------7-7-7-7-7-7-7-7(6-6-6-6-6-6-6-6)|
Db|4-4-4-4-4-4-4-4-2-2-2-2-2-2-2-2-7-7-7-7-7-7-7-7-7-7-7-7-7-7-7-7-| 3x
Ab|4-4-4-4-4-4-4-4-2-2-2-2-2-2-2-2-5-5-5-5-5-5-5-5-7-7-7-7-7-7-7-7-|
Eb|2-2-2-2-2-2-2-2-0-0-0-0-0-0-0-0-----------------5-5-5-5-5-5-5-5-|

eb|----------------------------------------------------------------|
Bb|----------------------------------------------------------------|
Gb|--------------------------------7-7-7-7-7-7-7-7-7-7-7-7-7-7-7-7-|
Db|4-4-4-4-4-4-4-4-2-2-2-2-2-2-2-2-7-7-7-7-7-7-7-7-7-7-7-7-7-7-7-7-| 1x
Ab|4-4-4-4-4-4-4-4-2-2-2-2-2-2-2-2-5-5-5-5-5-5-5-5-5-5-5-5-5-5-5-5-|
Eb|2-2-2-2-2-2-2-2-0-0-0-0-0-0-0-0---------------------------------|

Loppu: Soolo lähes samalla tavalla soitettuna kuin aiemmin.
Tap to rate this tab
# A B C D E F G H I J K L M N O P Q R S T U V W X Y Z