Song name
# A B C D E F G H I J K L M N O P Q R S T U V W X Y Z

Apulanta - Mit Kuuluu tab

-------------------------------------------------------------------------------
			     Mit kuuluu - Apulanta
-------------------------------------------------------------------------------
Tabbed by: Joona Terv aka Tatemono
Email: joonateraka@gmail.com

Tuning:EADGBe

Intro

e|--------------------------------------------|  x4
B|--------------------------------------------|
G|-------------------5-5-5-5------------------|
D|---7-7-7-7-3-3-3-3-5-5-5-5-5-5-5-5----------|
A|---7-7-7-7-3-3-3-3-3-3-3-3-5-5-5-5----------|
E|---5-5-5-5-1-1-1-1---------3-3-3-3----------|

Verse 
e|---------------------------------------------
B|---------------------------------------------
G|--13-----------------------------------------
D|---------------------------------------------
A|---------------------------------------------
E|---------------------------------------------

Chorus
e|--------------------------------------------|  x4
B|--------------------------------------------|
G|-------------------5-5-5-5------------------|
D|---7-7-7-7-3-3-3-3-5-5-5-5-5-5-5-5----------|
A|---7-7-7-7-3-3-3-3-3-3-3-3-5-5-5-5----------|
E|---5-5-5-5-1-1-1-1---------3-3-3-3----------|

Verse
e|--------------------------------------------|
B|--------------------------------------------|
G|--13----------------------------------------|
D|--------------------------------------------|
A|--------------------------------------------|
E|--------------------------------------------|

Bridge
e|---------------------------------------------------------------------|
B|---------------------------------------------------------------------|
G|------------------2-2-2-2-2-2-2-2-----------------2-2-2-2-2-2-2-2----|
D|--2-2-2-2-2-2-2-2-2-2-2-2-2-2-2-2-----------------2-2-2-2-2-2-2-2----|
A|--2-2-2-2-2-2-2-2-0-0-0-0-0-0-0-0-3-3-3-3-3-3-3-3-0-0-0-0-0-0-0-0----|
E|--0-0-0-0-0-0-0-0-----------------2-2-2-2-2-2-2-2--------------------|

e|---------------------------------------------------------------------|
B|---------------------------------------------------------------------|
G|------------------2-2-2-2-2-2-2-2------------------------------------|
D|--2-2-2-2-2-2-2-2-2-2-2-2-2-2-2-2-3-3-3-3-3-3-3-3-5-5-5-5-5-5-5-5----|
A|--2-2-2-2-2-2-2-2-0-0-0-0-0-0-0-0-3-3-3-3-3-3-3-3-5-5-5-5-5-5-5-5----|
E|--0-0-0-0-0-0-0-0-----------------1-1-1-1-1-1-1-1-3-3-3-3-3-3-3-3----|

Chorus
e|--------------------------------------------|  x4
B|--------------------------------------------|
G|-------------------5-5-5-5------------------|
D|---7-7-7-7-3-3-3-3-5-5-5-5-5-5-5-5----------|
A|---7-7-7-7-3-3-3-3-3-3-3-3-5-5-5-5----------|
E|---5-5-5-5-1-1-1-1---------3-3-3-3----------|
Tap to rate this tab
# A B C D E F G H I J K L M N O P Q R S T U V W X Y Z