Song name
# A B C D E F G H I J K L M N O P Q R S T U V W X Y Z

Apulanta - 003 tab

|---9---9---9---9---9---9---9---9-|
|-7---7---7---7---7---7---7---7---|
|---------------------------------|
|---------------------------------|
|---------------------------------|
|---------------------------------|

|-----------------------------------------------------------------|
|-----------------------------------------------------------------|
|-------------------------7-7-7-7-------------------------4-4-4-4-|
|-3-4-x-3-4-x-3-4-x-3-4---7-7-7-7-3-4-x-3-4-x-3-4-x-3-4---4-4-4-4-|
|-3-4-x-3-4-x-3-4-x-3-4---5-5-5-5-3-4-x-3-4-x-3-4-x-3-4---2-2-2-2-|
|-1-2-x-1-2-x-1-2-x-1-2-----------1-2-x-1-2-x-1-2-x-1-2-----------|

|-----------------------------------------------------------------|
|-----------------1-1-1-2-4-4-4-4-----------------1-1-1-2-4-4-4-4-|
|-6-6-6-6-6-6-6-662-2-2-2-2-2-2-2-6-6-6-6-6-6-6-662-2-2-2-2-2-2-2-|
|-4-4-4-4-4-4-4-44----------------4-4-4-4-4-4-4-44----------------|
|-----------------------------------------------------------------|
|-----------------------------------------------------------------|
  Halusin pahaa                   Lahjaksi antaa
  Vaan sitä samaa                 Löysin mun paikalta

|-----------------------------------------------------------------|
|-----------------------------------------------------------------|
|-------------------------7-7-7-7-------------------------4-4-4-4-|
|-3-4-x-3-4-x-3-4-x-3-4---7-7-7-7-3-4-x-3-4-x-3-4-x-3-4---4-4-4-4-|
|-3-4-x-3-4-x-3-4-x-3-4---5-5-5-5-3-4-x-3-4-x-3-4-x-3-4---2-2-2-2-|
|-1-2-x-1-2-x-1-2-x-1-2-----------1-2-x-1-2-x-1-2-x-1-2-----------|
  yeaaaaaaa

|-----------------------------------------------------------------|
|-----------------------------------------------------------------|
|-2-2-2-2-2-2-2-2-2-2-2-2-2-2-2-2---------------------------------|
|-2-2-2-2-2-2-2-2-2-2-2-2-2-2-2-2-4-4-4-4-4-4-4-4-4-4-4-4-4-4-4-4-|
|-0-0-0-0-0-0-0-0-0-0-0-0-0-0-0-0-4-4-4-4-4-4-4-4-4-4-4-4-4-4-4-4-|
|---------------------------------2-2-2-2-2-2-2-2-2-2-2-2-2-2-2-2-|
  Mun kadulla on kuoppia          Mun ovella vain lampaita
  Kun koputtaa niin aukaistaan    Tule vaan se on halpaa

|-----------------------------------------------------------------|
|-----------------1-1-1-2-4-4-4-4-----------------1-1-1-2-4-4-4-4-|
|-6-6-6-6-6-6-6-662-2-2-2-2-2-2-2-6-6-6-6-6-6-6-662-2-2-2-2-2-2-2-|
|-4-4-4-4-4-4-4-44----------------4-4-4-4-4-4-4-44----------------|
|-----------------------------------------------------------------|
|-----------------------------------------------------------------|
  Jokaista rataa                  pitäisi koittaa
  Palaako viha?                   Girls just wanna have fun

|-----------------------------------------------------------------|
|-----------------------------------------------------------------|
|-------------------------7-7-7-7-------------------------4-4-4-4-|
|-3-4-x-3-4-x-3-4-x-3-4---7-7-7-7-3-4-x-3-4-x-3-4-x-3-4---4-4-4-4-|
|-3-4-x-3-4-x-3-4-x-3-4---5-5-5-5-3-4-x-3-4-x-3-4-x-3-4---2-2-2-2-|
|-1-2-x-1-2-x-1-2-x-1-2-----------1-2-x-1-2-x-1-2-x-1-2-----------|
  yeaaaaaaa

|-----------------------------------------------------------------|
|-----------------------------------------------------------------|
|-2-2-2-2-2-2-2-2-2-2-2-2-2-2-2-2---------------------------------|
|-2-2-2-2-2-2-2-2-2-2-2-2-2-2-2-2-4-4-4-4-4-4-4-4-4-4-4-4-4-4-4-4-|
|-0-0-0-0-0-0-0-0-0-0-0-0-0-0-0-0-4-4-4-4-4-4-4-4-4-4-4-4-4-4-4-4-|
|---------------------------------2-2-2-2-2-2-2-2-2-2-2-2-2-2-2-2-|
  Mun kadulla on kuoppia          Mun ovella vain lampaita
  Kun koputtaa niin aukaistaan    Tule vaan se on halpaa

|---9---9---9---9---9---9---9---9-|
|-7---7---7---7---7---7---7---7---|
|---------------------------------|
|---------------------------------|
|---------------------------------|
|---------------------------------|

|-----------------------------------------------------------------|
|-----------------------------------------------------------------|
|-------------------------7-7-7-7-------------------------4-4-4-4-|
|-3-4-x-3-4-x-3-4-x-3-4---7-7-7-7-3-4-x-3-4-x-3-4-x-3-4---4-4-4-4-|
|-3-4-x-3-4-x-3-4-x-3-4---5-5-5-5-3-4-x-3-4-x-3-4-x-3-4---2-2-2-2-|
|-1-2-x-1-2-x-1-2-x-1-2-----------1-2-x-1-2-x-1-2-x-1-2-----------|
  yeaaaaaaa

|-----------------------------------------------------------------|
|-----------------------------------------------------------------|
|-2-2-2-2-2-2-2-2-2-2-2-2-2-2-2-2---------------------------------|
|-2-2-2-2-2-2-2-2-2-2-2-2-2-2-2-2-4-4-4-4-4-4-4-4-4-4-4-4-4-4-4-4-|
|-0-0-0-0-0-0-0-0-0-0-0-0-0-0-0-0-4-4-4-4-4-4-4-4-4-4-4-4-4-4-4-4-|
|---------------------------------2-2-2-2-2-2-2-2-2-2-2-2-2-2-2-2-|
  Mun kadulla on kuoppia          Mun ovella vain lampaita
  Kun koputtaa niin aukaistaan    Tule vaan se on halpaa
Tap to rate this tab
# A B C D E F G H I J K L M N O P Q R S T U V W X Y Z