Song name
# A B C D E F G H I J K L M N O P Q R S T U V W X Y Z

Apulanta - Dee Bee tab

  Intro bassolla 
 
  A5     F5
|------------------|
|------------------|
|-0-0-0-/-8-8-8-8\-| 
|------------------|
 
	Säe

  A5    A#5 A5    A#5 A5    A#5 A5    A#5 A5 
|------------------------------------------------------------------|
|------------------------------------------------------------------|
|-2-X-X-X-3-2-X-X-X-3-2-X-X-X-3-2-X-X-X-3-2------------------------|
|-2-X-X-X-3-2-X-X-X-3-2-X-X-X-3-2-X-X-X-3-2------------------------|
|-0-X-X-X-1-0-X-X-X-1-0-X-X-X-1-0-X-X-X-1-0------------------------|
|------------------------------------------------------------------|
  Mä tiedän jotain kauniimpaa
  Mutta en koskaan kiinni saa
  Mun täytyy saada koskettaa
  Ruusuista kukkaa tuoksuvaa

	Kertosäe
 
  C5      G5      A5      G5		F5  (biisin lopussa)
|---------------------------------|   |---|
|---------------------------------|   |---|
|-5---5---------------------------|   |---|
|-5---5---5---5---7---7---5---5---|   |-3-|
|-3---3---5---5---7---7---5---5---|   |-3-|
|---------3---3---5---5---3---3---|   |-1-|
 
 Dee Bee Dee Bee Älä mee Älä mee
Tap to rate this tab
# A B C D E F G H I J K L M N O P Q R S T U V W X Y Z