Song name
# A B C D E F G H I J K L M N O P Q R S T U V W X Y Z

Apulanta - Jumala tab

Highlighted       Show chord diagrams
-------------------------------------------------------------------------------
			     JUMALA - Apulanta
-------------------------------------------------------------------------------
Tabbed by: neeaneiti

Tuning: Standard

(*The song starts without guitar, but these are the chords taht there would be)


INTRO
(sliding)
e|-----------------------------------------------------------------------|
B|-----------------------------------------------------------------------|
G|-------7-9---------------7-9---------------7-9-------------------------|
D|---5-------9-7---9-4-5-------9-7-4-7-4-5-------9-7-4-5-7---------------|
A|---------------------------------------------------------2-(let ring)--|
E|-----------------------------------------------------------------------|


VERSE 1
        (*Em         D
Kultaiset hunnut peitt
          Em         D
Sisns meidt syvempn
        G
Niin jimme vangeiksi
D              C )
Likaiseen kauneuteen
              Em       D
Kun makeimman viinin antaa
            Em        D
Meidt juovuttaa uudestaan
          G          D         C       B    D  Em
Lydmmek unten alta kadonneen tien?


CHORUS
Em           G
 Miss taivas on?
              D              C           Em
Miss jumala on, kun lauma polkee paikallaan?
              G                D    C
Miss kuningas, joka meidt vapauttaa?


VERSE 2
          Em       D
Riivaajat ohjaa meit
          Em          D
Pin suloisimpia esteit
           G             D          C
Joihin ei ollenkaan tee tuskaa jd kii
        Em        D
Pimet tunnit nytt
          Em         D
Totuuden hetket pidempn
    G         D            C       B    D  Em
Itsek me itsemme nin kirottiin?



CHORUS
Em           G
 Miss taivas on?
              D              C           Em
Miss jumala on, kun lauma polkee paikallaan?
              G                D    C
Miss kuningas, joka meidt vapauttaa?


SOLO
(little bit sliding)
e|---------------------------------------------------------------|
B|---------------------------------------------------------------|
G|-------7-9--------------7-9-----------------7-9----------------|
D|---5-------9-7--9-4-5-------9-7-4-5-7-4-5-------9-7-4-5-7------|
A|----------------------------------------------------------2----|
E|---------------------------------------------------------------|


BRIDGE
D               Em       D
 Kun makeimman viinin antaa
              Em
Meidt taas juovuttaa
G              D          C       B    D  Em
Niin me lydmme kadonneen tien


CHORUS
Em           G
 Miss taivas on?
              D              C           Em
Miss jumala on, kun lauma polkee paikallaan?
              G                D    C
Miss kuningas, joka meidt vapauttaa?


Em           G
 Miss taivas on?
              D              C           Em
Miss jumala on, kun lauma polkee haudallaan?
              G                D    C
Miss kuningas, joka meidt vapauttaa?


OUTRO
(sliding)
e|-------------------------------------------------------------------------|
B|-------------------------------------------------------------------------|
G|-------7-9--------------7-9----------------------------------------------|
D|---5-------9-7--9-4-5------9-7-4-5-12-10-9---9-10-9-7-4-5-7-2-(let ring)-|
A|-------------------------------------------------------------------------|
E|-------------------------------------------------------------------------|
Tap to rate this tab
# A B C D E F G H I J K L M N O P Q R S T U V W X Y Z