Song name
# A B C D E F G H I J K L M N O P Q R S T U V W X Y Z

Apulanta - Ei Ne Voi Sua Maarata tab

Intro

|-------------------------------------------------------------------------------------|
|-------------------------------------------------------------------------------------|
|-------------------------------------------------------------------------------------|
|-0----0-2--0-----------0----0-2--0-----------4----4-5--4--2--0------4----4-5--4~-----|
|--------------4--0------------------4--0-------------------------0-------------------|
|--------------------2---------------------2------------------------------------------|
  Riffin päälle soinnut: D5 H5 G5 A5 x2


Säkeistö

|-----------------------------------------------------------------|
|-----------------------------------------------------------------|
|-7-7-7-7-7-7-7-7-7-7-7-7-7-7-7-7-4-4-4-4-4-4-4-4-4-4-4-4-4-4-2-2-|
|-7-7-7-7-7-7-7-7-7-7-7-7-7-7-7-7-4-4-4-4-4-4-4-4-4-4-4-4-4-4-2-2-|
|-5-5-5-5-5-5-5-5-5-5-5-5-5-5-4-4-2-2-2-2-2-2-2-2-2-2-2-2-2-2-0-0-|
|-----------------------------------------------------------------|
        Ne pitää meitä      väkivaltaisena sukupolvena
        Ne antaa äännöt            joita pitäis noudattaa

|-----------------------------------------------------------------|
|-----------------------------------------------------------------|
|-----------------------------------------------------------------|
|-5-5-5-5-5-5-5-5-5-5-5-5-5-5-5-5-7-7-7-7-7-7-7-7---7-7-7-7-7-7-7-|
|-5-5-5-5-5-5-5-5-5-5-5-5-5-5-5-5-7-7-7-7-7-7-7-7---7-7-7-7-7-7-7-|
|-3-3-3-3-3-3-3-3-3-3-3-3-3-3-3-3-5-5-5-5-5-5-4/5---5-5-5-5-5-5-5-|
        vaikkei ne tiedä meistä   mitään
        niin että nuoret kapinansa syödä saa


G5        A5      G5            D5   A5
Älä siitä välitä! Ei ne voi sua määrätä!
G5       A5         H5
Älä anna niiden sua käyttää hyväkseen!

G5 A5 H5 G5 A5

D5 H5 G5 A5 x2

D5 H5 G5 A5 x2
Ba-ba-ba-baa...

D5    H5        G5       A5
Älä anna niiden sua määrätä!
D5    H5             G5          A5
Ei niiden valheisiin kannata luottaa!
Tap to rate this tab
 
# A B C D E F G H I J K L M N O P Q R S T U V W X Y Z