Guitaretab - guitar tabs
Song name
# A B C D E F G H I J K L M N O P Q R S T U V W X Y Z

Apulanta - En Voi Autaa tab

    Intro - Bass

  Fm#           Hm                A             E
|-----------------------------------------------------------------|
|-----------------------------------------------------------------|
|-4---4-4-4-2-0-------------------2---2---0-2-0---------------2-2-|
|---------------2---2---4---4-5-5-------2-------4---4---5---5-----|

       acustic

  Fm#           Hm                A             E
|-2---2---2-2-2-2---2---2---2-2-2-5---5---5-5-5-0---0---0---0-0-0-|
|-2---2---2-2-2-3---3---3---3-3-3-5---5---5-5-5-0---0---0---0-0-0-|
|-2---2---2-2-2-4---4---4---4-4-4-6---6---6-6-6-1---1---1---1-1-1-|
|-4---4---4-4-4-4---4---4---4-4-4-7---7---7-7-7-2---2---2---2-2-2-|
|-4---4---4-4-4-2---2---2---2-2-2-0---0---0-0-0-2---2---2---2-2-2-|
|-2---2---2-2-2---------------------------------0---0---0---0-0-0-|
  Mä      tahtoisin               sen uuden     ihmeen viimeinkin  
  Ja       haluisin               sut esiin     kaivaa
  Eikä koskaan edes mieleeni tullut sanoo sulle niin  
  Kun     toisinaan               jäi liikaa    aikaa

  Fm#           Hm                E
|-2---2---2-2-2-2---2---2---2-2-2-0---0---0---0-0-0---0---0---0-0-|
|-2---2---2-2-2-3---3---3---3-3-3-0---0---0---0-0-0---0---0---0-0-|
|-2---2---2-2-2-4---4---4---4-4-4-1---1---1---1-1-1---1---1---1-1-|
|-4---4---4-4-4-4---4---4---4-4-4-2---2---2---2-2-2---2---2---2-2-|
|-4---4---4-4-4-2---2---2---2-2-2-2---2---2---2-2-2---2---2---2-2-|
|-2---2---2-2-2-------------------0---0---0---0-0-0---0---0---0-0-|
  Dum           dududum           dududum  
  Dum           dududum           dududum 
[ Tab from: http://www.guitaretab.com/a/apulanta/64600.html ]
  Fm#           Hm                A             E
|-2---2---2-2-2-2---2---2---2-2-2-5---5---5-5-5-0---0---0---0-0-0-|
|-2---2---2-2-2-3---3---3---3-3-3-5---5---5-5-5-0---0---0---0-0-0-|
|-2---2---2-2-2-4---4---4---4-4-4-6---6---6-6-6-1---1---1---1-1-1-|
|-4---4---4-4-4-4---4---4---4-4-4-7---7---7-7-7-2---2---2---2-2-2-|
|-4---4---4-4-4-2---2---2---2-2-2-0---0---0-0-0-2---2---2---2-2-2-|
|-2---2---2-2-2---------------------------------0---0---0---0-0-0-|
  Ei         enempää              sun tartte    etsii ystävää
  Jos       huvittaa              voit uuden    ostaa  
  Ja mä luulin, että sinäkin voisit mun oveen koputtaa  
  Jos      toisinaan              jäi liikaa    aikaa 
  

             

     dist

  C#5           D5            A5            E                      F#m
|-------------------------------------------------------------|  |-2---|
|-------------------------------------------------------------|  |-2---|
|-6-6-6-6-6-X---7-7-7-7-7-X---2---2-2-2-2-2-1---1-1-1-1-1-1-1-|  |-2---|
|-6-6-6-6-6-X---7-7-7-7-7-X---2---2-2-2-2-2-2---2-2-2-2-2-2-2-|  |-4---|
|-4-4-4-4-4-X---5-5-5-5-5-X---0---0-0-0-0-0-2---2-2-2-2-2-2-2-|  |-4---|
|-------------------------------------------0---0-0-0-0-0-0-0-|  |-2---|
            YEW!!         WOAW!!    Anteeksi en voi auttaa        (sua)

  Fm#           Hm                A             E
|-2---2---2-2-2-2---2---2---2-2-2-5---5---5-5-5-0---0---0---0-0-0-|
|-2---2---2-2-2-3---3---3---3-3-3-5---5---5-5-5-0---0---0---0-0-0-|
|-2---2---2-2-2-4---4---4---4-4-4-6---6---6-6-6-1---1---1---1-1-1-|
|-4---4---4-4-4-4---4---4---4-4-4-7---7---7-7-7-2---2---2---2-2-2-|
|-4---4---4-4-4-2---2---2---2-2-2-0---0---0-0-0-2---2---2---2-2-2-|
|-2---2---2-2-2---------------------------------0---0---0---0-0-0-|
  Taas     uudelleen              mä terän      käännän lappeelleen  
  Ja       uudelleen              sut haluun    löytää
  F#            Hm                A             E
|-----------------------------------------------------------------|
|-----------------------------------------------------------------|
|---------------4-4-4-4-4-4-4-4-4-2-2-2-2-2-2-2-------------------|
|-4-4-4-4-4-4-4-4-4-4-4-4-4-4-4-4-2-2-2-2-2-2-2-2-2-2-2-2-2-2-2-2-|
|-4-4-4-4-4-4-4-2-2-2-2-2-2-2-2-2-0-0-0-0-0-0-0-2-2-2-2-2-2-2-2-2-|
|-2-2-2-2-2-2-2---------------------------------0-0-0-0-0-0-0-0-0-|
  Ja mä luulin etten ikinä tahdo jäädä     roikkumaan
  Kun      toisinaan             jää liikaa     aikaa

        Solo  

  A                           A                           
  Yea yea yeah,               yea yea yeah
  Hm                          A                 E
  Yea yea yeah,               en voi auttaa     sua
Related for En Voi Autaa tab
Advertisement will be closed in 10 seconds