Song name
# A B C D E F G H I J K L M N O P Q R S T U V W X Y Z

Apulanta - Huomenna tab

Help us improve GuitareTab! Take a short survey!
|----------------------------------------------------------|
|----------------------------------------------------------|
|----------------------------------------------------------|
|----------------------------------------------------------|
|-----------------3---3---3---3-3-0-1---1---1-1-1---1---1--|
|-1---1---1---1-1------------------------------------------|

	Kitara säröllä

|----------------------------------------------------------|
|----------------------------------------------------------|
|-----------------5---5---5---5-5-2-3---3---3-3-3----3---3-|
|-3---3---3---3-3-5---5---5---5-5-2-3---3---3-3-3----3---3-|
|-3---3---3---3-3-3---3---3---3-3-0-1---1---1-1-1----1---1-|
|-1---1---1---1-1------------------------------------------|

F    C     A#
Mitä siitä saa
F    C     A#
Kun kaiken antaa
F    C     A#
Joku nukahtaa
F    C     A#
Sinut unohtaa

Am         A#
Hei kuinka jonkun aina täytyy
F          Dm
Yksin sukeltaa
Am         A#
Hei kuinka jonkun aina täytyy
C
C'mon c'mon c'mon

F    C     A#       C
Aurinko ei nouse huomenna
F    C     A#        C
Aurinko ei paista pohjalla
Dm          A#              F               C
Juokse kovempaa juokse kovempaa, muuten satuttaa

F    C     A#
F    C     A#
F    C     A#
Älä mene pois
F    C     A#
On vielä aikaa
F    C     A#
Pitää yrittää
F    C     A#
Pakoon pimeää

Am         A#
Hei kuinka jonkun aina täytyy
F          Dm
Kesken lopettaa
Am         A#
Hei kuinka jonkun aina täytyy
C
C'mon c'mon c'mon

F    C     A#       C
Aurinko ei nouse huomenna
F    C     A#        C
Aurinko ei paista pohjalla
Dm          A#              F               C
Juokse kovempaa juokse kovempaa, muuten satuttaa

        Soolo

|------------------------------------------------------------|
|------------------------------------------------------------|
|-5---5---5---5---5-5-5-5---5-5-2---2---2---2---2-2-2-2--2-2-|
|------------------------------------------------------------|
|------------------------------------------------------------|
|------------------------------------------------------------|

|------------------------------------------------------------|
|------------------------------------------------------------|
|-3---3---3---3---3-3-3-3---3-3-2----------------------------|
|------------------------------------------------------------|
|------------------------------------------------------------|
|------------------------------------------------------------|

Am       A#
F        Dm
Am       A#
C

        (Uskothan sen kohta)
|------------------------------------------------------------|
|------------------------------------------------------------|
|-5--------7--------2--------3--------5--------5------3---2--|
|------------------------------------------------------------|
|------------------------------------------------------------|
|------------------------------------------------------------|

Am       A#
Uskothan sen
F        D
Tarinan eilisen
Am       A#
Uskothan sen
C5
C'mon c'mon c'mon

F    C     A#       C
Aurinko ei nouse huomenna
F    C     A#        C
Aurinko ei paista pohjalla
Dm          A#              F               C
Juokse kovempaa juokse kovempaa, muuten satuttaa
Related for Huomenna tab