Song name
# A B C D E F G H I J K L M N O P Q R S T U V W X Y Z

Apulanta - Japa Japa Jaa tab

intro

     A-5  
E |-------------------------------------------------------------|
B |-------------------------------------------------------------|
G |--8---8---x--x---8---8---------------------------------------|
D |--7---7---x--x---7---7---------------------------------------|x4
A |--6---6---x--x---6---6---------------------------------------|
E |--5---5---x--x---5---5---------------------------------------|

verse

guitar 1

E |-------------------------------------------------------------|
B |-------------------------------------------------------------|
G |--8--8--x8--8--8--x7-----------------------------------------|
D |--7--7--x7--7--7--x6-----------------------------------------|x4
A |--6--6--x6--6--6--x5-----------------------------------------|
E |--5--5--x5--5--5--x4-----------------------------------------|

      guitar2
    Esus4
E |-------------------------------------------------------------|
B |--------10--jää soimaan--------------------------------------|
G |------9------------------------------------------------------|
D |----8--------------------------------------------------------|
A |--7----------------------------------------------------------|
E |-------------------------------------------------------------|
  
   Puomin värit ovat keltainen ja musta, jotka meitä auttaa
   tiedän, että minulla ei ole sitä loputonta sanavaltaa
   ne kaman pintaan heittää meille tilaa, joka pitää täyttää, jota ei saa peittää
   hämähäkki laulaa meille täällä tuutulaulun josta paljon kaikki tykkää

   
  chorus

   A             C
   japa japa jaa 

   A                     C
   ja se on japa japa jaa

   A                     C  
   ja se on japa japa jaa

   A                      C
   ja se on japa japa jaa japa jaa jaa   x2

    A-5                                                     Absus4
E|--------------------------------------------------------------------------------|
b|--------------------------------------------------------------------------------|
G|--8--8--x--x--8--8---8--8--x--x--8--8---8--8--x--x--8--8--7---8--8--x--x--8--8--|
D|--7--7--x--x--7--7---7--7--x--x--7--7---7--7--x--x--7--7--6---7--7--x--x--7--7--|
A|--6--6--x--x--6--6---6--6--x--x--6--6---6--6--x--x--6--6--5---6--6--x--x--6--6--|
E|--5--5--x--x--5--5---5--5--x--x--5--5---5--5--x--x--5--5--4---5--5--x--x--5--5--|


   verse

   kissa mukanamme kulkee, vaikka siitä kukaan ei tykkää
   pussiin kiviä ja aarre, jonka kimalainen meille löytää
   armonlahjat tietää kyllä mistä täällä tuulee, mistä oikein laulut täällä kertoo
   onnellinen on se, joka kipua ei säästä, joka tietää mitä kivi tahtoo

   chorus
   
   
E|--------------------------------------------------------------------------------|
B|--------------------------------------------------------------------------------|
G|--8--8--x7--8---8--8--x7--8---8--8--x7--8---8--8--x7--8-------------------------|
D|--7--7--x6--7---7--7--x6--7---7--7--x6--7---7--7--x6--7-------------------------|
A|--6--6--x5--6---6--6--x5--6---6--6--x5--6---6--6--x5--6-------------------------|x2
E|--5--5--x4--5---5--5--x4--5---5--5--x4--5---5--5--x4--5-------------------------| 


   chorus

   outro=

   (japa japa jaa)
Tap to rate this tab
 
# A B C D E F G H I J K L M N O P Q R S T U V W X Y Z