Song name
# A B C D E F G H I J K L M N O P Q R S T U V W X Y Z

Apulanta - Jos Tahdot Niin tab

       Intro - acoustic

  Em      E/Em7
|-0---0---0-0-0-0-|
|-0---0---0-0-0-0-|
|-0---0---0-0-0-0-|
|-2---2---0-2-2-0-|
|-2---2---2-2-2-2-|
|-0---0---0-0-0-0-|

Em              D
Kutsun sut minun luokseni  
Em              D
Unohdetaan muut täksi illaksi
C               G
Tehdään vaikka  teetä, syödään
D               Em
pulla      pitkosta
C               D
Ystäväni tervetuloa  

	

  E5        C5H5        F5    E5        C5  D5        F5
|---------------------------------------------------------|
|---------------------------------------------------------|
|-----------5-4---4-4-4-----------------5---7---7-7-7-----|
|-2---2-2-2-5-4---4-4-4-3-3-3-2---2-2-2-5---7---7-7-7-3-3-|
|-2---2-2-2-3-2---2-2-2-3-3-3-2---2-2-2-3---5---5-5-5-3-3-|
|-0---0-0-0-------------1-1-1-0---0-0-0---------------1-1-|
      d d d       d d d     d     d d d         d d d   d
  Jenna     venaa             mua      kutittaa       jei..
  Jenna     venaa             tuu      raapimaan  

Em              D
Jos tahdot niin voit tuoda ystävän
Em              D
Yhdessä me saadaan enemmän
C               G
Kuitenkaan ei   liikaa niitä
D               Em
koskaan olla    voi
C               D
Ystäväni tervetuloa
Tap to rate this tab
 
# A B C D E F G H I J K L M N O P Q R S T U V W X Y Z