Song name
# A B C D E F G H I J K L M N O P Q R S T U V W X Y Z

Apulanta - Kolmioolaake tab

Help us improve GuitareTab! Take a short survey!
 e I------------|I
 h I------------|I
 G I------------|I
 D I--5-5-5-5---|I
 A I------------|I
 E I------------|I
 H I------------|I
      d d d d

      E5      G5      H5              E5      G5      H5         G5
 e I------------------------------------------------------------------|
 h I------------------------------------------------------------------|
 G I------------------------------------------------------------------|
 D I----------5-5-5-5-------------------------5-5-5-5------------5--5-|
 A I--2-2-2-2-5-5-5-5-----------------2-2-2-2-5-5-5-5------------5--5-|
 E I--0-0-0-0-3-3-3-3-2-2-2-2-2-2-2-2-0-0-0-0-3-3-3-3-2-2-2-2-2--3--3-|
 H I------------------0-0-0-0-0-0-0-0-----------------0-0-0-0-0-------|
      d d d d d d d d d d d d d d d d d d d d d d d d d d d d d

      E5      G5      H5              E5
    ----------------------------------------|I
    ----------------------------------------|I
    ----------------------------------------|I
    ----------5-5-5-5-----------------------|I
    --2-2-2-2-5-5-5-5-----------------2-2---|I
    --0-0-0-0-3-3-3-3-2-2-2-2-2-2-2-2-0-0---|I
    ------------------0-0-0-0-0-0-0-0-------|I
      d d d d d d d d d d d d d d d d d d

 Verse1
 Em       D/F#         Hm       Am        Em
 Ethän sä tunne mitään sillä en tunne minäkään
        D         Camj7
 Sanoja ilman sovitaan
 Em     D/F#         Hm        Am          Em
 Kolmiolääke poistaa oireet ja auttaa uudestaan
          D           Cmaj7
 Takaisin alkuun kulkemaan

 Pre-chorus
 H5
 Älä tunnusta jos sattuu

 Chorus
 G5 H5  E5
 Ei voittoo tällä kertaa
 G5 H5 E5
 Ei armoo hetken vertaa
 D5 C5  E5
 Piinaa mua kunnes huudan
 G5  H5  A5
 Auta mua kolmiolääke

 Verse2
 Em       D/F#           Hm        Am            Em
 Ethän sä jäänyt miettii Tiedäthän tää on vaan pelii
          D            Cmaj7
 Eihän siitä voi suuttuu
 Em         D/F#          Hm       Am       Em
 Sun pitäis olla tarpeeks vanha se ymmärtämään
         D             Cmaj7
 Aamulla säännöt muuttuu

 pre-chorus
 H5
 Älä tunnusta jos pelkäät

 Chorus
 G5 H5  E5
 Ei voittoo tällä kertaa
 G5 H5 E5
 Ei armoo hetken vertaa
 D5 C5  E5
 Piinaa mua kunnes huudan
 G5  H5  A5
 Auta mua kolmiolääke

     E5      G5      H5              E5      G5      H5         G5
 e I------------------------------------------------------------------|
 h I------------------------------------------------------------------|
 G I------------------------------------------------------------------|
 D I----------5-5-5-5-------------------------5-5-5-5------------5--5-|
 A I--2-2-2-2-5-5-5-5-----------------2-2-2-2-5-5-5-5------------5--5-|
 E I--0-0-0-0-3-3-3-3-2-2-2-2-2-2-2-2-0-0-0-0-3-3-3-3-2-2-2-2-2--3--3-|
 H I------------------0-0-0-0-0-0-0-0-----------------0-0-0-0-0-------|
      d d d d d d d d d d d d d d d d d d d d d d d d d d d d d

      E5      G5      H5              E5      G5      H5
    --------------------------------------------------------------------|I
    --------------------------------------------------------------------|I
    --------------------------------------------------------------------|I
    ----------5-5-5-5-------------------------5-5-5-5-------------------|I
    --2-2-2-2-5-5-5-5-----------------2-2-2-2-5-5-5-5-------------------|I
    --0-0-0-0-3-3-3-3-2-2-2-2-2-2-2-2-0-0-0-0-3-3-3-3-2-2-2-2-2-2-2-2---|I
    ------------------0-0-0-0-0-0-0-0-----------------0-0-0-0-0-0-0-0---|I
      d d d d d d d d d d d d d d d d d d d d d d d d d d d d d d d d

 C-osa
 G         D/F#       Em
 Kaiken jälkeen on kylmää
 G         D/F#       Em
 Taistelun jäljet syö jää
 G        D/F#     Em
 Laskeutuu hiljaisuus
 G        D/F#      H5
 Alkaa viimeinen mustuus

 Chorus
 G5 H5  E5
 Ei voittoo tällä kertaa
 G5 H5 E5
 Ei armoo hetken vertaa
 D5 C5  E5
 Piinaa mua kunnes huudan
 G5  H5  A5
 Auta mua kolmiolääke

      E5      G5      H5              E5      G5      H5         G5
 e I------------------------------------------------------------------|
 h I------------------------------------------------------------------|
 G I------------------------------------------------------------------|
 D I----------5-5-5-5-------------------------5-5-5-5------------5--5-|
 A I--2-2-2-2-5-5-5-5-----------------2-2-2-2-5-5-5-5------------5--5-|
 E I--0-0-0-0-3-3-3-3-2-2-2-2-2-2-2-2-0-0-0-0-3-3-3-3-2-2-2-2-2--3--3-|
 H I------------------0-0-0-0-0-0-0-0-----------------0-0-0-0-0-------|
      d d d d d d d d d d d d d d d d d d d d d d d d d d d d d

      E5      G5      H5              E5
    ----------------------------------------|I
    ----------------------------------------|I
    ----------------------------------------|I
    ----------5-5-5-5-----------------------|I
    --2-2-2-2-5-5-5-5-----------------2-2---|I
    --0-0-0-0-3-3-3-3-2-2-2-2-2-2-2-2-0-0---|I
    ------------------0-0-0-0-0-0-0-0-------|I
      d d d d d d d d d d d d d d d d d d

D/F#   H5    E5    G5    C5    D5    A5   Cmaj7
I-2-I I---I I---I I---I I---I I---I I---I I-0--|I
I-3-I I---I I---I I---I I---I I---I I---I I-0--|I
I-2-I I-4-I I---I I---I I-5-I I-7-I I-2-I I-0--|I
I-0-I I-4-I I-2-I I-5-I I-5-I I-7-I I-2-I I-2--|I
I-0-I I-2-I I-2-I I-5-I I-3-I I-5-I I-0-I I-3--|I
I-2-I I---I I-0-I I-3-I I---I I---I I---I I-x--|I
Related for Kolmioolaake tab