Song name
# A B C D E F G H I J K L M N O P Q R S T U V W X Y Z

Apulanta - Mex-tex Cowboys tab

|---------------------------------|
|---------------------------------|
|-2-------5-------8-----7-----5---|
|-2-------5-------8-----7-----5---|
|-0-------3-------6-----5-----3---|
|---------------------------------|

|-----------------------------------------------------------------|
|-----------------------------------------------------------------|
|-----------------------------------------------------------------|
|-----------------------------------------------------------------|
|-0-0-3-3-0-0-3-3-0-0-3-3-0-0-3-3-0-0-3-3-0-0-3-3-6-6-6-5-5-5-3-3-|
|-----------------------------------------------------------------|

  Mikä minun sisällänin minua kaivaa?
  Kuka sisälläni asuu?
  Mikä kumma minua aina 
  Mistä tämä kaikki johtuu?
  Rupi-rupi-rupi-rupi minua peittää
  Minä olen yhtä haavaa
  Mikä kumma minua aina pistää?
  Mistä tämä kaikki johtuu?

|---------------------------------|
|---------------------------------|
|-2-------5-------8-----7-----5---|
|-2-------5-------8-----7-----5---|
|-0-------3-------6-----5-----3---|
|---------------------------------|
  Et saa painaa sitä nappulaa
  Et saa tehdä sitä taikinaa
  Et saa painaa sitä nappulaa
  Et saa tehdä sitä taikinaa

|-----------------------------------------------------------------|
|-----------------------------------------------------------------|
|-----------------------------------------------------------------|
|-----------------------------------------------------------------|
|-0-0-3-3-0-0-3-3-0-0-3-3-0-0-3-3-0-0-3-3-0-0-3-3-6-6-6-5-5-5-3-3-|
|-----------------------------------------------------------------|
  Ota-ota-ota-ota minusta puolet 
  Ota jopa kokonaan
  Mikä kumma minua aina halkoo?
  Mistä tämä kaikki johtuu?
  Minä olen raha
  Minä haluan kaiken
  Ehkä vielä syvempää
  Mikä kumma minua aina kääntää
  Mistä tämä kaikki johtuu?
|---------------------------------|
|---------------------------------|
|-2-------5-------8-----7-----5---|
|-2-------5-------8-----7-----5---|
|-0-------3-------6-----5-----3---|
|---------------------------------|
  Et saa painaa sitä nappulaa
  Et saa tehdä sitä taikinaa
  Et saa painaa sitä nappulaa
  Et saa tehdä sitä taikinaa

|-0----------------------------------------------------|
|-1----------------------------------------------------|
|-2----------------------------------------------------|
|-2----------------------------------------------------|
|-0----------------------------------------2-3---3-2-1-|
|------------------------------------------------------|

|------------------------------------------------------|
|-1-----------------------1----------------------------|
|-2-----------------------2----------------------------|
|-2-----------------------2---1---0---2-2---2-1---0----|
|-0-2-3-0-2-3-2-3---3-2-1-0----------------------------|
|------------------------------------------------------|

|------------------------------------------------------|
|-1----------------------------------------------------|
|-2-----------------------2----------------------------|
|-2-----------------------2----------------------------|
|-0---0---2-3-3---3-2-1---0----------------------------|
|------------------------------------------------------|
  Et saa painaa sitä nappulaa
  Et saa tehdä sitä taikinaa
  Et saa painaa sitä nappulaa
  Et saa tehdä sitä taikinaa

|------------------------0-------------------------------|
|------------------------1-------------------------------|
|-2-------2-----2--------2-------------------------------|
|-2-------2-----2--------2-------------------------------|
|-0-------0-----0--------0-------------------------------|
|-----------3-4---------------------------
Tap to rate this tab
 
# A B C D E F G H I J K L M N O P Q R S T U V W X Y Z