Guitaretab - guitar tabs
Song name
# A B C D E F G H I J K L M N O P Q R S T U V W X Y Z
Home / A / Apulanta / Roura tab

Apulanta - Roura tab

this is from their own homepage.



Intro:
------

E |----2---3p2---------|-----2---3p2---------|
H |--0---0-----0-3-0---|-------0-----0-3-0---|
G |0-------------------|---0-----------------|
D |--------------------|---------------------|
A |--------------------|---------------------|
E |--------------------|---------------------|
H |--------------------|---------------------|


   C5                   D5                    E5                   E5
E |----2---3p2---------|-----2---3p2---------|----2---3p2---------|-----2---3p2---------|
H |--0---0-----0-3-0---|-------0-----0-3-0---|--0---0-----0-3-0---|-------0-----0-3-0---|
G |0-------------------|---0-----------------|0-------------------|---0-----------------|
D |--------------------|---------------------|--------------------|---------------------|
A |--------------------|---------------------|--------------------|---------------------|
E |--------------------|---------------------|--------------------|---------------------|
H |--------------------|---------------------|--------------------|---------------------| x2




1.säkeistö:
-----------

Em                     C
Ontossa tuulessa, joka syntyi sun usvassa
   Am
Ja elää sun tahdosta
          D
Mä kuulen rumia lauseita
Em                            C
Kaikki niin valmiina laitettu kauniiksi katsella
Am                          D
Piti vain uskaltaa ja ottaa mitä on tarjolla

Em                        Hm      Am                D
Ihmettelen kuinka kaksi rataa voi tyhjässä törmätä yhteen
Em                         Hm
Osuman jälkeen kauniisti sataa
   Am                Hm
Ja tuhkasta solmimme lyhteen



Kertosäe:
---------
        E5       H5        C5               D5
Maalaat mun roudalle värit joista mä tunnen sen
      E5         H5        A5             D5
Pienimpiinkin kohtiin teet puolikkaan ihmisen
[ Tab from: http://www.guitaretab.com/a/apulanta/93443.html ]
E |----2---3p2---------|-----2---3p2---------|
H |--0---0-----0-3-0---|-------0-----0-3-0---|
G |0-------------------|---0-----------------|
D |--------------------|---------------------|
A |--------------------|---------------------|
E |--------------------|---------------------|
H |--------------------|---------------------| x2


2. säkeistö:
------------
Em                       C
Reiteistä helpompi, joka enemmän houkutti
     Am
Joka pahastakin päästi
           D
Mut sillat muutti vain roihuiksi


Em                            Hm      Am                       D
Ei kannata leikkii aivan kaikilla, jotkut ei anna pätkääkään siimaa
Em                                     Hm
Paljon voit saada mut kaikkee et kuitenkaan
    Am                       Hm
Kun koiran lailla seuraat sun kiimaa


Kertosäe:
---------
        E5       H5        C5               D5
Maalaat mun roudalle värit joista mä tunnen sen
      E5         H5        A5             D5
Pienimpiinkin kohtiin teet puolikkaan ihmisen

E |----2---3p2---------|-----2---3p2---------|
H |--0---0-----0-3-0---|-------0-----0-3-0---|
G |0-------------------|---0-----------------|
D |--------------------|---------------------|
A |--------------------|---------------------|
E |--------------------|---------------------|
H |--------------------|---------------------| x2



C-osa:
------
C5                     D5                   H5              E5
Mä en koskaan pelännyt seuraavaa aamua vaan viimeistä iltaa
C5                    D5           H5                  E5      
Helpompaa on pölynä lattialla kuin patsaana vasaran alla
C5                     D5                     H5                     E5
Luota siihen, pidä kii uskostasi ihmisiin mut joku sutkin vielä käännyttää
     D5  C5                  D5
Enkä mä ole ensimmäinen joka otteensa menettää
     H5                      E5
Enkä viimeiseksikään taida jäädä


Outro:
------
        Em       Hm        C                D
Maalaat mun roudalle värit joista mä tunnen sen
      Em         Hm           Am          D
Pienimpiinkin kohtiin teet puolikkaan ihmisen
       Em        Hm        C             D
Laulat mun haavoille sielunmessusi valkoisen
       Em          Hm        Am              D
Tiedät niin tarkalleen mihin nuottiin kätken sen
Related for Roura tab