Song name
# A B C D E F G H I J K L M N O P Q R S T U V W X Y Z

Aqme - Le Rouge Et Le Noir tab

Yow this is a very good song, so enjoy!

Intro/Verse (clean):
E----------------------------------------------------------------------------|
B----------------------------------------------------------------------------|
G----------------------------------------------------------------------------|
D--------0-------0---------0-------0---------0-------0---------0-------0-----|
A----------2-------2---------2-------2---------2-------2---------2-------2---|
E--0-0-0-----0-0-----0-0-0-----0-0-----3-3-3-----3-3-----0-0-0-----0-0-------|

Chorus (distortion):

E----------------------------------------------------------------------------|
B----------------------------------------------------------------------------|
G------------10-10-10-10-----------------------------------------------------|
D--2-2---2-2-10-10-10-10-10-10-10-10-9-9-9-----------------------------------|
A--2-2---2-2--8--8--8--8-10-10-10-10-9-9-9-----------------------------------|
E--0-0---0-0--------------8--8--8--8-7-7-7-----------------------------------|

Bridge:
E----------------------------------------------------------------------------|
B----------------------------------------------------------------------------|
G----------------------------------------------------------------------------|
D----------------------------------------------------------------------------|
A----6-----6----7-----7----6-----6----7-----7--------------------------------|
E--7---7-7----8---8-8----7---7-7----8---8-8----------------------------------|

Outro:
E----------------------------------------------------------------------------|
B----------------------------------------------------------------------------|
G----------------------------------------------------------------------------|
D--2-2---------------------------------2-2-----------------------------------|
A--2-2---10-10-10-10-9-9-9-9-8-8-8-8---2-2---10-10-10-10-9-9-9-9-8-8-8-8-----|
E--0-0---------------------------------0-0-----------------------------------|

E----------------------------------------------------------------------------|
B----------------------------------------------------------------------------|
G----------------------------------------------------------------------------|
D--2-2---------------------------------2-2-----------------------------------|
A--2-2---10-10-10-10-9-9-9-9-8-8-8-8---2-2---10-10-10-10-9-9-9-9-8-8-8-------|
E--0-0---------------------------------0-0-----------------------------------|
Tap to rate this tab
# A B C D E F G H I J K L M N O P Q R S T U V W X Y Z