Song name
# A B C D E F G H I J K L M N O P Q R S T U V W X Y Z

Aqua Timez - Velonica tab

Help us improve GuitareTab! Take a short survey!
-------------------------------------------------------------------------------
			     Velonica - Aqua Timez
-------------------------------------------------------------------------------
Tabbed by:Archeo
Email: arvinceleridad@hotmail.com / arvinceleridad@yahoo.com

Tuning: E Standard (Song is in Drop C/C Standard but I got it on E Standard)


Effects used:

Phaser
Chorus
Delay




_____________

Intro:

Rhythm OR Bass

1st & 2nd Part (Clean & Distorted)		
e|-----------------------------|
B|-----------------------------|
G|-----------------------------|
D|-----------------------------|
A|-7/----3\----5---------------|
E|-7/----3\----5---------------|

Lead & Rhythm (2nd Part is not used when Rhythm is distorted)

1st Part (Played by rhythm)	2nd Part (scratch muted note and play both B & G 
with Delay and slight drive)

1st Part                        2nd Part
e|-----------------------------|--------------------|
B|-8---8---8---8---8---8---8---|-x-x---7\-----------|
G|---7---7---7---7---7---7---7-|-x-x---8\-----------|
D|-----------------------------|-x-x----------------|
A|-----------------------------|--------------------|
E|-----------------------------|--------------------|



________________

Verse: (1st Half)

Rhythm OR Bass

e|-----------------------------|
B|-----------------------------|
G|-----------------------------|
D|-----------------------------|
A|-7/----3\----5---------------|
E|-7/----3\----5---------------|


Lead OR Rhythm

e|---|------7--|--7--|-------7-----|
B|-8-|-7(h)8---|--8--|--7(h)8--8-7-|
G|-7-|---------|--7--|-------------|
D|---|---------|-----|-------------|
A|---|---------|-----|-------------|
E|---|---------|-----|-------------|




========
Verse: (2nd Half)

Lead & Rhythm

e|-----------------------|
B|-8-8-xx-8-8-7-778-xx---|
G|-7-7-xx-7-7-7-777-xx---|
D|-----------------------|
A|-----------------------|
E|-----------------------|




_______________
Pre-Chorus:

Rhythm & Lead 

Clean			    			Distorted
e|------3--------3--------3------3------------|-----------------------|
B|----3--3-----3--3-----3--3---3--3-----------|-----------------------|
G|--5--------5--------5-------5------6-6--5-5-|-----------------------|
D|-5--------5--------5-------5-------6-6--5-5-|---7-7--7-7---4-4-4-4--|
A|-----------------------------------4-4--3-3-|---5-5--5-5---2-2-2-2--|
E|--------------------------------------------|-----------------------|


===========
Chorus:

Sidenote: After 1nd Part A, always proceed to 1nd Part B


Rhythm & Lead (1nd Part A)

e|---------------------------------------------|
B|---------------------------------------------|
G|---------------------------------------------|
D|--5-5/----77-77-7/---9-9/---12-12-12-12-12---|
A|--3-3/----55-55-5/---7-7/---10-10-10-10-10---|
E|--3-3/----55-55-5/---7-7/---10-10-10-10-10---|

Rhythm (1nd Part B)

e|--------------------------------|
B|--------------------------------|
G|--------------------------------|
D|--5-5/----77-77-7/---9-9-9-9-9--|
A|--3-3/----55-55-5/---7-7-7-7-7--|
E|--3-3/----55-55-5/---7-7-7-7-7--|

Lead Fills (Done every 2nd repeat of above)

e|-------------------------------------|
B|-------------------------------------|
G|--------------------9-9/-11-11/-12---|
D|--------------------x-x--x--x---x----|
A|--------------------7-7/-9--9/--10---|
E|-------------------------------------|

Rhythm & Lead (after 7th Repeat of 2nd Part B & A)

e|-------------------------------------|
B|-------------------------------------|
G|-------------------------------------|
D|--6-66-6---2-2--44-44-4--5-5-5-5-5-5-|
A|--4-44-4---0-0--22-22-2--3-3-3-3-3-3-|
E|-------------------------------------|




__________________

Repeat Distorted Intro


Repeat Verse (This time, just scratch the lead part as muted notes with Phaser)


Repeat Pre-Chorus
  (PM-------------------)
e|---------------------------------|-----------------------|
B|---------------------------------|-----------------------|
G|------------------------6-6--5-5-|-----------------------|
D|-55-5-55-5--55-5-55-5---6-6--5-5-|---7-7--7-7---4-4-4-4--|
A|-33-3-33-3--22-2-22-2---4-4--3-3-|---5-5--5-5---2-2-2-2--|
E|---------------------------------|-----------------------|

Repeat Chorus




_______________

Interlude:

Sidenote: Repeat until you go back to Chorus


e|------------------------|
B|------------------------|
G|------------------------|
D|-5-5-5-5-5-5-5-5-5-5-5--|
A|-3-3-3-3-3-3-3-3-3-3-3--|
E|------------------------|


  Repeat x4
e|-----------------------------------------------------------------|
B|-----------------------------------------------------------------|
G|-5-5-5-5-5-5-5-5-5-5-5-5-5-5-5-5--4-4-4-4-4-4-4-4-4-4-4-4-4-4-4--|
D|-5-5-5-5-5-5-5-5-5-5-5-5-5-5-5-5--5-5-5-5-5-5-5-5-5-5-5-5-5-5-5--|
A|-3-3-3-3-3-3-3-3-3-3-3-3-3-3-3-3--2-2-2-2-2-2-2-2-2-2-2-2-2-2-2--|
E|-----------------------------------------------------------------|


e|------------------------------------------------------------------------------------------------|
B|------------------------------------------------------------------------------------------------|
G|6-6-6-6-6-6-6-6-5-5-5-5-5-5-5-5--7-7-7-7-7-7-7-4-4-4-4-4-4--6-6-6-6-5-5-5-5---------------------|
D|6-6-6-6-6-6-6-6-5-5-5-5-5-5-5-5--7-7-7-7-7-7-7-4-4-4-4-4-4--6-6-6-6-5-5-5-5---7-7--7-7---4-4-4-4|
A|4-4-4-4-4-4-4-4-3-3-3-3-3-3-3-3--5-5-5-5-5-5-5-2-2-2-2-2-2--4-4-4-4-3-3-3-3---5-5--5-5---2-2-2-2|
E|------------------------------------------------------------------------------------------------|

Repeat Chorus

Repeat Distorted Intro

Outro:

e|----------------------|
B|----------------------|
G|-6-6-6-6--5-5-5-5-5---|
D|-6-6-6-6--5-5-5-5-5---|
A|-4-4-4-4--3-3-3-3-3---|
E|----------------------|



===============================================================================
| /  slide up
| \  slide down
| h  hammer-on
| p  pull-off
| ~  vibrato
| +  harmonic
| x  Mute note
===============================================================================
Related for Velonica tab