Song name
# A B C D E F G H I J K L M N O P Q R S T U V W X Y Z

Aqua Timez - Sen No Yoru Wo Koete tab

Aqua Timez  Sen No Yoru Wo Koete
Standard Tuning (E B G D A E)
Capo on 1

Solo:
E ------------0h1/3-/5--5--3--1--0h1/3----------7--6--3--1--0h1/3--/5--3--1--0h1/3--/5--3--1----|
B --------1----------------------------------1--1-----------------------------------------------|
G --1-2-----------------------------------------------------------------------------------------|
D ----------------------------------------------------------------------------------------------|
A ----------------------------------------------------------------------------------------------|
E ----------------------------------------------------------------------------------------------|

E --0--0--1--0-----0-|-1/3--/5--3--1--0-----|
B ----------------1--| ---------------------|
G -------------------| ---------------------| x2	(2nd time dont play last part)
D -------------------| ---------------------|
A -------------------| ---------------------|
E -------------------| ---------------------|
( / ) slide down
( h ) hammer
( p ) pull off

I got it from -
http://www.youtube.com/watch?v=l_D7qveOXY4&feature=related
Do not forget to rate him.
Tap to rate this tab
 
# A B C D E F G H I J K L M N O P Q R S T U V W X Y Z