Song name
# A B C D E F G H I J K L M N O P Q R S T U V W X Y Z

Aqua - Turn Back Time tab

-------------------------------------------------------------------------------
			     AQUA - Turn Back Time (chorus)
-------------------------------------------------------------------------------
Tabbed by: Daniel Matcham
Email: d_matcha@hotmail.co.uk

Tuning: Standard (capo 1)

e|--------5-----0-2-------------------------------------------------------------------|
B|-33333----33------------------------------------------------------------------------|
G|------------------------------------------------------------------------------------|
D|------------------------------------------------------------------------------------|
A|------------------------------------------------------------------------------------|
E|------------------------------------------------------------------------------------|
   If only I could turn back time
e|--------5------2-0------------------------------------------------------------------|
B|-33333-----33-----------------------------------------------------------------------|
G|------------------------------------------------------------------------------------|
D|------------------------------------------------------------------------------------|
A|------------------------------------------------------------------------------------|
E|------------------------------------------------------------------------------------|
   If only I had said what I still hide
e|--------5-------0-2-----------------------------------------------------------------|
B|-33333-----33-----------------------------------------------------------------------|
G|------------------------------------------------------------------------------------|
D|------------------------------------------------------------------------------------|
A|------------------------------------------------------------------------------------|
E|------------------------------------------------------------------------------------|
   If only I could turn back time
e|--------3---2-30-----------------------------------------------------------------|
B|-3333----------------------------------------------------------------------------|
G|---------------------------------------------------------------------------------|
D|---------------------------------------------------------------------------------|
A|---------------------------------------------------------------------------------|
E|---------------------------------------------------------------------------------|
  I would stay for the night.

Repeat for each chorus

| /  slide up
| \  slide down
| h  hammer-on
| p  pull-off
| ~  vibrato
| +  harmonic
| x  Mute note
===============================================================================
Tap to rate this tab
 
# A B C D E F G H I J K L M N O P Q R S T U V W X Y Z