Song name
# A B C D E F G H I J K L M N O P Q R S T U V W X Y Z

Aqua - Lollipop Candyman tab

Intro:

piano:  

e|-------------------------18-----------------------------18-19-20-----------|
B|--20-----20------20--------------21-18-21-18-21-----21---------------------|
G|-----17------17------17-----17------------------20-------------------------|
D|---------------------------------------------------------------------------|
A|---------------------------------------------------------------------------|
E|---------------------------------------------------------------------------|


e|-------------------------18------------------------------------------------|
B|--20-----20------20--------------21-18-21-18-21-----18---------------------|
G|-----17------17------17-----17------------------20-------17----------------|
D|---------------------------------------------------------------------------|
A|---------------------------------------------------------------------------|
E|---------------------------------------------------------------------------|


Strings:

e|--------------8--------------8---------------------------------------------|
B|--8-------9--------8-----9---9---------------------------------------------|
G|--8-------10--8----8-----10------------------------------------------------|
D|--10--8---10-------10-8--10------------------------------------------------|
A|---------------------------------------------------------------------------|
E|---------------------------------------------------------------------------|


Verse:

play this when Lene sings

e|------------------------------8-8-8-------------------------|
B|--8--8--8--8--8----9----9-----9-9-9-------------------------|
G|--8--8--8--8--8----10---10----------------------------------|
D|--10-10-10-10-10---10---10----------------------------------|
A|-------------------8----8-----------------------------------|
E|------------------------------------------------------------|


play this when Rene sings

e|---------------------------------------------------------------------------|
B|---------------------------------------------------------------------------|
G|-------12-------12----12----12--10-10-10-10--13-13-13-13-------------------|
D|---10-------10-----10----10------------------------------------------------|
A|---------------------------------------------------------------------------|
E|---------------------------------------------------------------------------|


Chorus:

e|---------------------------------------------------------------------------|
B|---------------------------------------------------------------------------|
G|-----10----10---13-13-12------8-----12-12-12-10--8-------------------------|
D|--10----10-----------------8-----8-----------------------------------------|
A|---------------------------------------------------------------------------|
E|---------------------------------------------------------------------------|



e|---------------------------------------------------------------------------|
B|---------------------------------------------------------------------------|
G|-----10----10---13-13-12------8-----12-10--8-------------------------------|
D|--10----10-----------------8-----8------------10---------------------------|
A|---------------------------------------------------------------------------|
E|---------------------------------------------------------------------------|
Tap to rate this tab
# A B C D E F G H I J K L M N O P Q R S T U V W X Y Z