Guitaretab - guitar tabs
Song name
# A B C D E F G H I J K L M N O P Q R S T U V W X Y Z

Aquabats - Playdough tab

The Aquabats
"Playdough"
Tabbed by Dave N.

Intro 1: Guitar

e|-6-----------------------|
B|-6-----------------------|
G|-7-----------------------|
D|-8-----------------------|
A|-8-----------------------|
E|-6-----------------------|


Intro 1: Trumpet (slow)

e|------------------------------10-11------------------------------|
B|-11------------------10-11-13-------13---11-10-11----------------|
G|----10-11-10-8-10-11---------------------------------------------|
D|-----------------------------------------------------------------|
A|-----------------------------------------------------------------|
E|-----------------------------------------------------------------|
                                       ~~~~

Intro 2 and all Verses: Guitar

e|-6-6-6-6-6-6-x-x-6-6-6-6-6-6-6-6----------------------------------|
B|-6-6-6-6-6-6-x-x-8-8-6-6-6-6-6-6----------------------------------|
G|-7-7-7-7-7-7-x-x-8-8-7-7-7-7-7-7-888-8----------------------------|
D|-8-8-8-8-8-8-x-x-8-8-8-8-8-8-8-8-999-9----------------------------|
A|-8-8-8-8-8-8-x-x-6-6-8-8-8-8-8-8-999-9----------------------------|
E|-6-6-6-6-6-6-x-x-----6-6-6-6-6-6-777-7----------------------------|

     Am            Dm   Am         B

(B is played with a fast 123 down & up strum,
ending on a single down strum)

Intro 2: Trumpet (fast)
[ Tab from: http://www.guitaretab.com/a/aquabats/109694.html ]
e|------------------------------------------------------|
b|-11------------------------------------10-11-12-------|
g|----10-11-10-8-10--------------11-10-8----------------|
d|------------------8-10-11-10-8------------------------|
a|------------------------------------------------------|
e|------------------------------------------------------|

Pre-Chorus:Guitar

e|--9--9--9--9--9--9--9--9-7-7-7-7-7-7-7-7-----------------|
b|-11-11-11-11--9--9--9--9-9-9-9-9-7-7-7-7-----------------|
g|-11-11-11-11--8--8--8--8-9-9-9-9-8-8-8-8-----------------|
d|-11-11-11-11-11-11-11-11-9-9-9-9-9-9-9-9-----------------|
a|--9--9--9--9-11-11-11-11-7-7-7-7-9-9-9-9-----------------|
e|--------------9--9--9--9---------7-7-7-7-----------------|

    Fm         Cm          E       B

Chorus: Guitar

e|--9--9--9--9-9--7-7-7-7-7----------------|
B|-11-11--9--9-9--9-9-7-7-7----------------|
G|-11-11--8--8-8--9-9-8-8-8----------------|
D|-11-11-11-11-11-9-9-9-9-9----------------|
A|--9--9-11-11-11-7-7-9-9-9----------------|
E|-------9---9--9-----7-7-7----------------|

   Fm    Cm        E   B
 (Chorus ends on Fm)

Ending: Guitar

e|--9---9---9---9-9--9---9-7-7-7-7-7-7-7-7-----------------|
B|-11-11-11-11--9-9--9---9-9-9-9-9-7-7-7-7-----------------|
G|-11-11-11-11--8-8--8---8-9-9-9-9-8-8-8-8-----------------|
D|-11-11-11-11-11-11-11-11-9-9-9-9-9-9-9-9-----------------|
A|--9--9--9--9-11-11-11-11-7-7-7-7-9-9-9-9-----------------|
E|--------------9-9--9--9----------7-7-7-7-----------------|

similar to chorus
Related for Playdough tab
Advertisement will be closed in 10 seconds