Song name
# A B C D E F G H I J K L M N O P Q R S T U V W X Y Z

Aquabats - Hi-five City tab

Song: Hi-Five City
Artist: The Aquabats
Album: Charge!!

Tabbed by: Indy Fawcett [kingklick1@yahoo.com]


Tuning: Standard: EADGBE


Intro:

e---------|-------------------|
b---------|-------------------|
g---------|-------------------|
d --------|-------------------|
a---3-3---|-------0-2-3-3-----|
e---------|----3--------------|

e ---------------|----------------------|
b ---------------|----------------------|
g ---------------|----------------------|
d ---------------|----------------------|
a ---------------|----------------------|
e ----0-3-4-5-5--|---0-3-4-5-5----------|

e----------------|-------------------|
b----------------|-------------------|
g----------------|-------------------|
d ---------------|-------------------|
a-----0-2-3-3----|-------0-2-3-3-----|
e--3-------------|----3--------------|


e ---------------|----------------------|
b ---------------|----------------------|
g ---------------|----------------------|
d ---------------|----------------------|
a ---------------|----------------------|
e  ---0-3-4-5-5--|---0-3-4-5-5----------|
Tap to rate this tab
# A B C D E F G H I J K L M N O P Q R S T U V W X Y Z