Song name
# A B C D E F G H I J K L M N O P Q R S T U V W X Y Z

Aquabats - Mechanical Ape tab

The Aquqbats
Mechanical Ape

Tabbed by Jc447 (First Tab)
Vote up, it's accurate!
Key:

s  = slide
lr = let ring

Intro

E--------------------------------------|
B--------------------------------------|
g--------------------------------------|
d-----2---0--0-------------2---0--0---4|
a-7s-0--3---------2------0--3---------2|2x
e----------3---3----------------3---3--|
(Second time without slide from 7th)

Verse
E-5--5--5lr-----5--5--1--1--------------|
B-5--5--5--(5)--5--5--1--1--------------|
g-5--5--5--(5)--5--5--2--2--------------|
d-7--7--7--(7)--7--7--3--3--------------|
a---------------------------------------|8x
e---------------------------------------|

Pre-chorous
E-5--5--5--5--5--1--1--5--5--5--5--5--555--|
B-5--5--5--5--5--1--1--5--5--5--5--5--555--|
g-5--5--5--5--5--2--2--5--5--5--5--5--555--|
d-7--7--7--7--7--3--3--7--7--7--7--7--777--|
a------------------------------------------|
e------------------------------------------|

Chorous
E|------------------------|
B|------------------------|
G|------------------------|
D|---555777---------------|
A|7773335555555555--------|
E|555------3333333--------|
Tap to rate this tab
# A B C D E F G H I J K L M N O P Q R S T U V W X Y Z