Song name
# A B C D E F G H I J K L M N O P Q R S T U V W X Y Z

Aquabats - Pool Party tab

Help us improve GuitareTab! Take a short survey!
Song Title: pool party
band: aquabats
tuning: standard

Intro
e|--------------------------------------------------------------|
B|--------------------------------------------------------------|
G|-.-9-9-9-----------------.-4-4-4------------------------------|
D|-.-9-9-9-.-6-6-6-.-4-4-4-.-4-4-4------------------------------|
A|-.-7-7-7-.-6-6-6-.-4-4-4-.-2-2-2----------------------    X 3-|
E|---------.-4-4-4-.-2-2-2--------------------------------------|

e|-------------------------------------------------------------|
B|-------------------------4---0-------------------------------|
G|-.-9-9-9-----------------------------------------------------|
D|-.-9-9-9-.-6-6-6-.-4-4-4-------------------------------------|
A|-.-7-7-7-.-6-6-6-.-4-4-4-------------------------------------|
E|---------.-4-4-4-.-2-2-2-------------------------------------|

Verse

e|----------------------------------------------------------------|
B|----------------------------------------------------------------|
G|--------------------------4-4-4-4-------------------------------|
D|--2-2-2-2-6-6-6-6-4-4-4-4-4-4-4-4-------------------------------|   X4
A|--2-2-2-2-6-6-6-6-4-4-4-4-2-2-2-2-------------------------------|
E|--0-0-0-0-4-4-4-4-2-2-2-2---------------------------------------|
    . . . . . . . . . . . . . . . . (pm)

e|------------------------------------------------------------------|
B|------------------------------------------------------------------|
G|----.-.-9-9-.-.-13-13-.-.-11-11-.-.-16-16-------------------------|
D|----.-.-9-9-.-.-13-13-.-.-11-11-.-.-16-16-------------------------|   X4
A|----.-.-7-7-.-.-11-11-.-.-9--9--.-.-14-14-------------------------|
E|------------------------------------------------------------------|

Pre Chorus
e|--8---------10-----11-------------------------------------------|
B|----10-8-10-----------------------------------------------------|
G|----------------------------------------------------------------|   X4
D|-------------------------9-9-11-9-------------------------------|
A|----------------------------------------------------------------|
E|----------------------------------------------------------------|

Chorus
e|------------------------------------------------------------------|
B|------------------------------------------------------------------|
G|-9-9-9-9-4-4-4-4-7-7-7-7-7-7-7-7----------------------------------|
D|-9-9-9-9-4-4-4-4-7-7-7-7-7-7-7-7----------------------------------|   X2
A|-7-7-7-7-2-2-2-2-5-5-5-5-5-5-5-5----------------------------------|
E|------------------------------------------------------------------|

e|--------------------------------------------------------------------|
B|--------------------------------------------------------------------|
G|-9-9-999-4-4-444-7-7-777-7-7-777------------------------------------|
D|-9-9-999-4-4-444-7-7-777-7-7-777------------------------------------|   X2
A|-7-7-777-2-2-222-5-5-555-5-5-555------------------------------------|
E|--------------------------------------------------------------------|




Verse:

e|------------------------------------------------------------------------|
B|------------------------------------------------------------------------|
G|-.-9-9-9-----------------.-4--------------------------------------------|
D|-.-9-9-9-.-6-6-6-.-4-4-4-.----------------------------------------------|
A|-.-7-7-7-.-6-6-6-.-4-4-4-.-2------------------------------------    X 2-|
E|---------.-4-4-4-.-2-2-2------------------------------------------------|


e|-------------------------------------------------------------------|
B|-------------------------------------------------------------------|
G|--------------------------4-4-4-4----------------------------------|
D|--2-2-2-2-6-6-6-6-4-4-4-4-4-4-4-4----------------------------------|   X4
A|--2-2-2-2-6-6-6-6-4-4-4-4-2-2-2-2----------------------------------|
E|--0-0-0-0-4-4-4-4-2-2-2-2------------------------------------------|
    . . . . . . . . . . . . . . . .

e|-------------------------------------------------------------------|
B|-------------------------------------------------------------------|
G|----.-.-9-9-.-.-13-13-.-.-11-11-.-.-16-16--------------------------|
D|----.-.-9-9-.-.-13-13-.-.-11-11-.-.-16-16--------------------------|   X4
A|----.-.-7-7-.-.-11-11-.-.-9--9--.-.-14-14--------------------------|
E|-------------------------------------------------------------------|

Pre Chorus
e|--8---------10-----11----------------------------------------------|
B|----10-8-10--------------------------------------------------------|
G|-------------------------------------------------------------------|   X4
D|-------------------------9-9-11-9----------------------------------|
A|-------------------------------------------------------------------|
E|-------------------------------------------------------------------|


Chorus
e|--------------------------------------------------------------------|
B|--------------------------------------------------------------------|
G|-9-9-9-9-4-4-4-4-7-7-7-7-7-7-7-7------------------------------------|
D|-9-9-9-9-4-4-4-4-7-7-7-7-7-7-7-7------------------------------------|   X2
A|-7-7-7-7-2-2-2-2-5-5-5-5-5-5-5-5------------------------------------|
E|--------------------------------------------------------------------|

e|-------------------------------------------------------------|
B|-------------------------------------------------------------|
G|-9-9-999-4-4-444-7-7-777-7-7-777-----------------------------|
D|-9-9-999-4-4-444-7-7-777-7-7-777-----------------------------|   X2
A|-7-7-777-2-2-222-5-5-555-5-5-555-----------------------------|
E|-------------------------------------------------------------|





Bridge
e|-----------------------------------------------------------|
B|-----------------------------------------------------------|
G|-----------------------------------------------------------|
D|-2~~~~~~~~~~~~~~~~~~--/14\---------------------------------|
A|-2~~~~~~~~~~~~~~~~~~--/14\---------------------------------|
E|-0~~~~~~~~~~~~~~~~~~---------------------------------------|

synth:

e|-----------------------------------------------------------------|
B|-10-7-9---7------------------------------------------------------|
G|--------9---7----------------------------------------------------|
D|-----------------------------------------------------------------|
A|------------------------------------------------------------ X 8-|
E|-----------------------------------------------------------------|


Chorus
e|---------------------------------------------------------------|
B|---------------------------------------------------------------|
G|-9-9-9-9-4-4-4-4-7-7-7-7-7-7-7-7-------------------------------|
D|-9-9-9-9-4-4-4-4-7-7-7-7-7-7-7-7-------------------------------|   X2
A|-7-7-7-7-2-2-2-2-5-5-5-5-5-5-5-5-------------------------------|
E|---------------------------------------------------------------|

e|--------------------------------------------------------------|
B|--------------------------------------------------------------|
G|-9-9-999-4-4-444-7-7-777-7-7-777------------------------------|
D|-9-9-999-4-4-444-7-7-777-7-7-777------------------------------|   X4
A|-7-7-777-2-2-222-5-5-555-5-5-555------------------------------|
E|--------------------------------------------------------------|


e|-----------------------------------------------------------------|
B|-----------------------------------------------------------------|
G|-----------------------------------------------------------------|
D|-2~~~~~~~~~~~~~2~~~~~--/14\2-------------------------------------|
A|-2~~~~~~~~~~~~~2~~~~~--/14\2-------------------------------------|
E|-0~~~~0-23~~0~~~~~~~~~~~~-------------------------------------|


the other tabs are terrible... this is better, may be a few errors
Related for Pool Party tab