Song name
# A B C D E F G H I J K L M N O P Q R S T U V W X Y Z

Aquabats - Idiot Box tab

----------------------------------------------------------------------------
Song: Idiot Box
Band: The Aquabats!
Album: Fury of the Aquabats!
tabbed by: ParticleManTMBG
----------------------------------------------------------------------------
This is all fast ska upstrokes.

Intro
   A       D       A       E       A       D       A       E
e--5-5-5-5-2-2-2-2-5-5-5-5-4-4-4-4-5-5-5-5-2-2-2-2-5-5-5-5-4-4-4-4-|
b--5-5-5-5-3-3-3-3-5-5-5-5-5-5-5-5-5-5-5-5-3-3-3-3-5-5-5-5-5-5-5-5-|
g--6-6-6-6-2-2-2-2-6-6-6-6-4-4-4-4-6-6-6-6-2-2-2-2-6-6-6-6-4-4-4-4-|
d--7-7-7-7---------7-7-7-7---------7-7-7-7---------7-7-7-7---------|
a------------------------------------------------------------------|
E------------------------------------------------------------------|

Verse
   A       D       A       E       A       D       A       E
e--5-5-5-5-2-2-2-2-5-5-5-5-4-4-4-4-5-5-5-5-2-2-2-2-5-5-5-5-4-4-4-4-|
b--5-5-5-5-3-3-3-3-5-5-5-5-5-5-5-5-5-5-5-5-3-3-3-3-5-5-5-5-5-5-5-5-|
g--6-6-6-6-2-2-2-2-6-6-6-6-4-4-4-4-6-6-6-6-2-2-2-2-6-6-6-6-4-4-4-4-|
d--7-7-7-7---------7-7-7-7---------7-7-7-7---------7-7-7-7---------|
a------------------------------------------------------------------|
E------------------------------------------------------------------|

   A       D       A       E       A       D       E
e--5-5-5-5-2-2-2-2-5-5-5-5-4-4-4-4-5-5-5-5-2-2-2-2-4-4-4-4-4-4-4-4-|
b--5-5-5-5-3-3-3-3-5-5-5-5-5-5-5-5-5-5-5-5-3-3-3-3-5-5-5-5-5-5-5-5-|
g--6-6-6-6-2-2-2-2-6-6-6-6-4-4-4-4-6-6-6-6-2-2-2-2-4-4-4-4-4-4-4-4-|
d--7-7-7-7---------7-7-7-7---------7-7-7-7-------------------------|
a------------------------------------------------------------------|
E------------------------------------------------------------------|

Chorus
   A    A    D    D    E       D        A    A    D    D    E
 Turn Off  Idiot Box!                                      NOW!
e--5----5----2----2----4-4-4-4-2-2-2-2--5----5----2----2----4------|
b--5----5----3----3----5-5-5-5-3-3-3-3--5----5----3----3----5------|
g--6----6----2----2----4-4-4-4-2-2-2-2--6----6----2----2----4------|
d--7----7-------------------------------7----7---------------------|
a------------------------------------------------------------------|
E------------------------------------------------------------------|

The "Find Yourself A Partner" Part
   F#m
e--5-5-5-5-5-5-5-5-5-5-5-5-5-5-5-5-5-5-5-5-5-5-5-5-5-5-5-5-5-5~ ---|
b--7-7-7-7-7-7-7-7-7-7-7-7-7-7-7-7-7-7-7-7-7-7-7-7-7-7-7-7-7-7~ ---|
g--6-6-6-6-6-6-6-6-6-6-6-6-6-6-6-6-6-6-6-6-6-6-6-6-6-6-6-6-6-6~ ---|
d------------------------------------------------------------------|
a------------------------------------------------------------------|
E------------------------------------------------------------------|

[Verse]

[Chorus]

["find yourself a partner"]

[Intro]

[Verse]

[Chorus]

End on
   A
e--5~ --
b--5~ --
g--6~ --
d--7~ --
a-------|
E-------|


Enjoi peace out
Tap to rate this tab
# A B C D E F G H I J K L M N O P Q R S T U V W X Y Z