Aquabats - Red Sweater tab

intro 
         (A)        (C#m)      (D)           (E)
|----0------|-----------|----2------|-----------|--0-|
|------2----|----5------|------3----|-----------|--0-|
|--------2--|------6----|--------2--|----1------|--1-|
|--2--------|--------6--|--0--------|------2----|--2-|
|-----------|--4--------|-----------|--------2--|--2-|
|-----------|-----------|-----------|--0--------|--0-| (each chord twice except the final E)

horn riff
|-----------------------------------|
|-----------------------------------|
|-----9--------6-----------6-7-6----|
|--7-----7--6-----6--4--7-----------|
|---------------------------------9-|
|-----------------------------------|

verse/chorus/ background for horns
              A               C#m               D                 E
|--5-5-x-5-x-5-x-|--4-4-x-4-x-4-x-|--5--5-x-5-x-5-x-|--7-7-x-7-x-7-x-|
|--5-5-x-5-x-5-x-|--5-5-x-5-x-5-x-|--5--5-x-5-x-5-x-|--9-9-x-9-x-9-x-|
|--6-6-x-6-x-6-x-|--6-6-x-6-x-6-x-|--7--7-x-7-x-7-x-|--9-9-x-9-x-9-x-|
|--7-7-x-7-x-7-x-|--6-6-x-6-x-6-x-|--7--7-x-7-x-7-x-|--9-9-x-9-x-9-x-|
|--7-7-x-7-x-7-x-|--4-4-x-4-x-4-x-|--5--5-x-5-x-5-x-|--7-7-x-7-x-7-x-|
|--5-5-x-5-x-5-x-|----------------|-----------------|----------------|

bridge

|------------------(x3)-|-----------------|
|-----------------------|-----------------|
|-----------------------|-9-9-9-9-9-9-9-9-|
|--5-5-5-5--7-7-7-7-----|-9-9-9-9-9-9-9-9-|
|--5-5-5-5--7-7-7-7-----|-7-7-7-7-7-7-7-7-|
|--3-3-3-3--5-5-5-5-----|-----------------|

horn solo (only trumpet part)
|--------------------------|--------------------------|
|--------------------------|--------------------------|
|----6---6---6---6-8-6-----|----7---7---7---7-9-7-----|
|--7---7---7---7-------8-7-|--8---8---8---8-------9-8-|
|--------------------------|--------------------------|
|--------------------------|--------------------------|

|--------------------------| 
|----6---6---6---6-8-6-----|
|--7---7---7---7-------8-7-| (first ending)(second ending)
|--------------------------|
|--------------------------|
|--------------------------|

1st ending       2nd ending
|--------------|--------------------|
|--------------|--------------------|
|------6-7-----|------7-7-6---------|
|--4-7-----9-7-|--4-7-------9~--7~--|
|--------------|--------------------|
|--------------|--------------------|

outro

|--0-----0-----2-------5-|
|----2-----2-----2-----5-|
|------2-----2-----2---6-|
|--2-----2-------------7-|
|----------------------7-|
|----------------------5-|

order: 
intro
horn riff (x2)
verse 
chorus
horn riff (x2)
verse (x2)
bridge
chorus (x2)
horn solo
intro/ bridge (its weird, figure it out)
chorus (x2)
horn riff (x4)
outro
Tap to rate this tab
 
# A B C D E F G H I J K L M N O P Q R S T U V W X Y Z