Song name
# A B C D E F G H I J K L M N O P Q R S T U V W X Y Z

Aquabats - Amino Man tab

I LOVE THIS SONG! I'm surprised no one has tabbed this.

P.S. I made the first one but then I saw a mistake. Thanks for understanding!

Intro (Just this little part)
e|---------------------------------------------------------------------------|
B|---------------------------------------------------------------------------|
G|---------------------------------------------------------------------------|
D|44-5~~55-7~~---------------------------------------------------------------|
A|22-3~~33-5~~---------------------------------------------------------------|
E|---------------------------------------------------------------------------|

Verse
e|---------------------------------------------------------------------------|
B|---------------------------------------------------------------------------|
G|---------------------------------------------------------------------------|
D|-----------------------------------------4-45~~5-57~~----------------------|
A|-----------------------------------------2-23~~3-35~~----------------------|
E|7-75b~9-97b~-----------7-75b~9-97b~----------------------------------------|

Chorus (Play this twice)
e|---------------------------------------------------------------------------|
B|---------------------------------------------------------------------------|
G|---------------------------------------------------------------------------|
D|----------------------------------------------44~5555-77-------------------|
A|22200022255222000222552220002225522200022255--22~3333-55-------------------|
E|---------------------------------------------------------------------------|

Hook
e|---------------------------------------------------------------------------|
B|---------------------------------------------------------------------------|
G|---------------------------------------------------------------------------|
D|5-5-7-7-55554444-5-5-7-7-55554444-5-5-7-7-55554444-5-5-7-7-55554444--------|
A|3-3-5-5-33332222-3-3-5-5-33332222-3-3-5-5-33332222-3-3-5-5-33332222--------|
E|---------------------------------------------------------------------------|

Outro (I'm not sure how many times you play this but if you listen to the song it's 
pretty easy to figure it out)
e|---------------------------------------------------------------------------|
B|---------------------------------------------------------------------------|
G|---------------------------------------------------------------------------|
D|444-----555-777------------------------------------------------------------|
A|222-444-333-555------------------------------------------------------------|
E|----222--------------------------------------------------------------------|

Order:
Intro
Verse
Chorus
Verse
Chorus
Hook
Outro

************************************

| /   slide up
| \   slide down
| h   hammer-on
| p   pull-off
| ~   vibrato
| +   harmonic
| x   Mute note
| b   Bend
| pb  Pre-bend
| br  Bend release
| pbr Pre-bend release
| brb Bend release bend

************************************

So, like I said, you might want to listen to the song first, but other than that this is 
pretty easy. Hope you enjoy this tab! :)
Tap to rate this tab
# A B C D E F G H I J K L M N O P Q R S T U V W X Y Z