Song name
# A B C D E F G H I J K L M N O P Q R S T U V W X Y Z

Aquabats - The Legend Is True tab

A little bit of a kid song, but one of my favorites.
Intro
e|---------------------------------------------------------------------------|
B|---------------------------------------------------------------------------|
G|--------------------------------------------------------------44444444-----|
D|77772222-4~~~~~-----777722224444~~~~-7777222244444444-7777222244444444-----|
A|77772222-4~~~~~-----777722224444~~~~-7777222244444444-7777222222222222-----|
E|55550000-2~~~~~-----555500002222~~~~-5555000022222222-55550000-------------|

Verse (Just play this four times, and then play A5 three more times)
e|---------------------------------------------------------------------------|
B|---------------------------------------------------------------------------|
G|---------------------------------------------------------------------------|
D|77-7--55-5--77-77----------------------------------------------------------|
A|77-7--55-5--77-77----------------------------------------------------------|
E|55-5--33-3--55-55----------------------------------------------------------|

Chorus
e|---------------------------------------------------------------------------|
B|---------------------------------------------------------------------------|
G|---------------------------------------------------------------------------|
D|7777777777----7777777777777----777777777---777777777-----------------------|
A|7777777777----7777777777777----777777777---777777777-----------------------|
E|5555555555----5555555555555----555555555---555555555-----------------------|

Bridge
e|---------------------------------------------------------------------------|
B|---------------------------------------------------------------------------|
G|---------------------------------------------------------------------------|
D|77-7--22-2-444-4-----------------------------------------------------------|
A|77-7--22-2-444-4-----------------------------------------------------------|
E|55-5--00-0-222-2-----------------------------------------------------------|

Bridge 2
e|---------------------------------------------------------------------------|
B|---------------------------------------------------------------------------|
G|---------------------------------------------------------------------------|
D|6b~~~~~--------------------------------------------------------------------|
A|6b~~~~~--------------------------------------------------------------------|
E|4b~~~~~--------------------------------------------------------------------|

Interlude
e|-------------------------------------------------------------7-77-7-7-10---|
B|---------------------------------------------------------------------------|
G|-----------------------3b~~~~~~~-------------------------------------------|
D|---------------------------------------------------------------------------|
A|---------------------------------------------------------------------------|
E|---------------------------------------------------------------------------|

Verse (Version 2)
e|---------------------------------------------------------------------------|
B|---------------------------------------------------------------------------|
G|---------------------------------------------------------------------------|
D|------------------6\44/9---------------------------------------------------|
A|------------------6\44/9---------------------------------------------------|
E|------------------4\22/7---------------------------------------------------|

Prechorus
e|---------------------------------------------------------------------------|
B|---------------------------------------------------------------------------|
G|---------------------------------------------------------------------------|
D|55-7-67-77777--7-7-99-67-7777-55-7-67-77777--7-7-797-9~~~~~----------------|
A|55-7-67-77777--7-7-99-67-7777-55-7-67-77777--7-7-797-9~~~~~----------------|
E|33-5-45-55555--5-5-77-45-5555-33-5-45-55555--5-5-575-7~~~~~----------------|

Solo
e|10-1212b12b12b-12b-12111012111012110121110----------------------15b~~~~~---|
B|------------------------------------------7b~~~~7788991212141415-----------|
G|---------------------------------------------------------------------------|
D|---------------------------------------------------------------------------|
A|---------------------------------------------------------------------------|
E|---------------------------------------------------------------------------|

Solo (continued)
e|15151414131312121515141413131212-------------------------------------------|
B|---------------------------------------------------------------------------|
G|---------------------------------------------------------------------------|
D|---------------------------------------------------------------------------|
A|---------------------------------57757979-9-9-11-11-997~~~9-77-55----------|
E|---------------------------------------------------------------------------|

Solo (continued)
e|---------------------------------------------------------------------------|
B|15b-1313-15b-1313-15b1315b~~~~~-151413141312131211121110-------------------|
G|--------------------------------------------------------12b~~~~~~~~--------|
D|---------------------------------------------------------------------------|
A|---------------------------------------------------------------------------|
E|---------------------------------------------------------------------------|

Chorus (version 2)
e|12b~~~~~~~~---------14b~~~~~~~~--12-12-12-12-14b~~~~~~~~~~--1213121314b~~~-|
B|---------------------------------------------------------------------------|
G|---------------------------------------------------------------------------|
D|---------------------------------------------------------------------------|
A|---------------------------------------------------------------------------|
E|---------------------------------------------------------------------------|

Outro
e|12b12b-12b-14b-121314121314-15b~~~~-12121212121212121212121212121212121212-|
B|---------------------------------------------------------------------------|
G|---------------------------------------------------------------------------|
D|---------------------------------------------------------------------------|
A|---------------------------------------------------------------------------|
E|---------------------------------------------------------------------------|

Outro (continued)
e|141312141312141312-14b~-12b~-10b~-12b/17b~~--------------------------------|
B|---------------------------------------------------------------------------|
G|---------------------------------------------------------------------------|
D|---------------------------------------------------------------------------|
A|---------------------------------------------------------------------------|
E|---------------------------------------------------------------------------|
(Note: all notes in the outro, second version of the chorus, and the solo (except for on 
the A and B strings) are double digit)


************************************

| /   slide up
| \   slide down
| h   hammer-on
| p   pull-off
| ~   vibrato
| +   harmonic
| x   Mute note
| b   Bend
| pb  Pre-bend
| br  Bend release
| pbr Pre-bend release
| brb Bend release bend

************************************

Order of song:
Intro
Verse
Verse (Version 2)
Prechorus
Chorus
Bridge
Verse
Verse (Version 2)
Chorus
Bridge 2
Interlude
Solo
Chorus (Version 2)
Outro


It's a bit of a complicated song, but easy to play and fun to jam on! I hope you enjoy 
this tab :)
Tap to rate this tab
# A B C D E F G H I J K L M N O P Q R S T U V W X Y Z