Song name
# A B C D E F G H I J K L M N O P Q R S T U V W X Y Z

Aquabats - Pizza Day tab

Help us improve GuitareTab! Take a short survey!
Intro

e|----6-6-6-6-6---66--5-5-5-5-5--55--2-2-2-2-2--222-3-3-3-3--33----------|
B|----6-6-6-6-6---66--6-6-6-6-6--66--3-3-3-3-3--333-4-4-4-4--44----------|
G|----7-7-7-7-7---77--5-5-5-5-5--55--4-4-4-4-4--444-3-3-3-3--33-----x2---|
D|-----------------------------------------------------------------------|
A|-----------------------------------------------------------------------|
E|-----------------------------------------------------------------------|

e|-----2-2-2-2-2--222-3-3-3-3--33--2-2-2-2-2-2-2--|
B|-----3-3-3-3-3--333-4-4-4-4--44--3-3-3-3-3-3-3--|
G|-----4-4-4-4-4--444-3-3-3-3--33--4-4-4-4-4-4-4--|
D|------------------------------------------------|
A|------------------------------------------------|
E|------------------------------------------------|

e|-----------------------------------------------------------------------|
B|-----------------------------------------------------------------------|
G|------------------10-10-10-10-10-1010----------------------------------|
D|----8-8-8-8-8--88-10-10-10-10-10-1010-6-6-6-6-6--666-8-8-8-8--88-------|
A|----8-8-8-8-8--88-8--8--8--8--8--8-8--6-6-6-6-6--666-8-8-8-8--88-------|
E|----6-6-6-6-6--66---------------------4-4-4-4-4--444-6-6-6-6--66-------|
Related for Pizza Day tab