Song name
# A B C D E F G H I J K L M N O P Q R S T U V W X Y Z

Aquabats - Radiation Song tab

Hey, this is the Radiation song, it's a good song. Standard tuning

Verse

Bass

--------|--------|--------|--------|-------|------|------|------|
---5----|--------|-5------|--------|-------|------|------|------|
-5------|-5------|--------|-5------|---0---|------|-0----|-5----|
--------|--------|--------|--------|-0-----|-0----|------|------|

Guitar

------7-|-----7--|----7---|-7------|-----10|----9-|----8-|------|
------8-|-----7--|----6---|-7------|-----9-|----9-|----9-|-7----|
------7-|-----7--|----7---|-7------|-----10|----10|----10|-7----|
--------|--------|--------|--------|-------|------|------|-7----|
--------|--------|--------|--------|-------|------|------|-5----|
--------|--------|--------|--------|-------|------|------|------|

Chorus

Bass

----------|----------|----------|----------|----------|----------|-----------|
----------|----------|----------|----------|----------|----------|-----------|
----------|----------|----------|-5-5-5-5-5|----------|-3-3-3-3-3|-3-3-3-3-3-|
-3-3-3-3-3|-4-4-4-4-4|-5-5-5-5-5|----------|-0-0-0-0-0|----------|-----------|

Guitar

----------|----------|----------|----------|-0-0-0-0-0|-0-0-0-0-0|-0-0-0-0-0-|
-----3----|-----4----|-----5----|-3-3-3-3-3|-0-0-0-0-0|-1-1-1-1-1|-1-1-1-1-1-|
---4---4--|---5---5--|---5---5--|-5-5-5-5-5|-0-0-0-0-0|-0-0-0-0-0|-0-0-0-0-0-|
--5-5-5-5-|--4-4-4-4-|--5-5-5-5-|-4-4-4-4-4|-2-2-2-2-2|-2-2-2-2-2|-1-1-1-1-1-|
----------|----------|----------|-5-5-5-5-5|-2-2-2-2-2|-3-3-3-3-3|-3-3-3-3-3-|
-3--------|-4--------|-5--------|----------|-0-0-0-0-0|----------|-----------|

Bass

------------------------------|
------------------------------|
-5-5-5-5-5-5-5-5-5-5-5-5-5-5-5|
------------------------------|

Guitar

---------10--10-12-10-12-12/14|
---10--10--10-----------------|
-11--11-----------------------|
------------------------------|
------------------------------|
------------------------------|

Interlude

Bass
---------|---------|---------|---------|
---------|---------|---------|---------|
---------|-------2-|-------1-|-------0-|
-------3-|---------|---------|---------|

Guitar

-5-4-3-3-|-5-4-2-2-|-5-4-1-1-|-5-4-0-0-|
-------3-|-------3-|-------2-|-------1-|
-------4-|-------4-|-------3-|-------2-|
-------5-|-------4-|-------3-|-------2-|
-------5-|-------2-|-------1-|-------0-|
-------3-|---------|---------|---------|

It's a pretty basic song, it ends with a G chord, you choose the position
Complaints? Email me at toejam10@hotmail.com
Tap to rate this tab
# A B C D E F G H I J K L M N O P Q R S T U V W X Y Z