Song name
# A B C D E F G H I J K L M N O P Q R S T U V W X Y Z

Aquabats - Yo Check Out This Ride tab

Help us improve GuitareTab! Take a short survey!
The Aquabats-Yo, Check out this ride (2004) 
tab by publicover


------------------------------------------------------ \
------------------------------------------------------  \
------------------------------------------------------   \  x2
101010-xxxxx-55--xx-101010xxxx---55---888-------------   /
-888---xxxxx-33--xx--888--xxxx---33---666---6666688---  /
--------------------------------------------4444466--- /


verse
------------------------------------------------------
------------------------------------------------------
------------------------------------------------------
-------------------55555555555555---------------------
-3333333333333--5--33333333333333---------------------
-1111111111111--3-------------------------------------

AND THATS ALL I KNOW BUT NO ONE HAS A TAB FOR IT
Related for Yo Check Out This Ride tab