Guitaretab - guitar tabs
Song name
# A B C D E F G H I J K L M N O P Q R S T U V W X Y Z

Aquabats - Red Sweater tab

Artist: The Aquabats
Song: Red Sweater
Album: The Fury of the Aquabats

Chords: A, c#m, D, E (Verse and Chorus) 

Intro (Chords are Right, Not Sure About Notes)
 A             c#m          D            E
E---0-------------------------2-------------------|
B-----2----------5--------------3-----------------|
G-------2x2-------6---x2---------2-x2-----1------|
D-2------------------6------0----------------2----|
A--------------4-------------------------------2--|
E----------------------------------------0--------|

Horns Enter
  A                   c#m               D                 A
E-x-5-x-5-x-5-x-5-x---4-x-4-x-4-x-4-x---2-x-2-x-2-x-2-x---5-x-5-x-5-x-5--|
B-x-5-x-5-x-5-x-5-x---5-x-5-x-5-x-5-x---3-x-3-x-3-x-3-x---5-x-5-x-5-x-5--|
G-x-6-x-6-x-6-x-6-x---6-x-6-x-6-x-6-x---2-x-2-x-2-x-2-x---6-x-6-x-6-x-6--|
D------------------------------------------------------------------------|
A------------------------------------------------------------------------|
E------------------------------------------------------------------------|
[ Tab from: http://www.guitaretab.com/a/aquabats/82570.html ]
Horn Part
E---------------------------------------------|
B---------------------------------------------|
G------9-----------6--------------6-7--6------|
D-7-------7----6------6--4-----7----------9---|
A---------------------------------------------|
E---------------------------------------------|

Verse, Chorus, and Horn Solo Chords
  A                   c#m               D                 E                    
E-x-5-x-5-x-5-x-5-x---4-x-4-x-4-x-4-x---2-x-2-x-2-x-2-x---4-x-4-x-4-x-4--|
B-x-5-x-5-x-5-x-5-x---5-x-5-x-5-x-5-x---3-x-3-x-3-x-3-x---5-x-5-x-5-x-5--|
G-x-6-x-6-x-6-x-6-x---6-x-6-x-6-x-6-x---2-x-2-x-2-x-2-x---4-x-4-x-4-x-4--|
D------------------------------------------------------------------------|
A------------------------------------------------------------------------|
E------------------------------------------------------------------------|

Bridge
   G5   A5   G5   A5   G5   A5   E5
E-------------------------------------------|
B-------------------------------------------|
G-------------------------------999999999---|
D-5555-7777-5555-7777-5555-7777-999999999---|
A-5555-7777-5555-7777-5555-7777-777777777---|
E-3333-5555-3333-5555-3333-5555-------------|

Repeat Intro 
   A        c#m      D        E
E--0-0-0-0-----------2-2-2-2-------------|
B--2-2-2-2--5-5-5-5--3-3-3-3--0-0-0-0----|
G--2-2-2-2--6-6-6-6--2-2-2-2--1-1-1-1----|
D--2-2-2-2--6-6-6-6--0-0-0-0--2-2-2-2----|
A--0-0-0-0--4-4-4-4-----------2-2-2-2----|
E-----------------------------0-0-0-0----|
Related for Red Sweater tab