Guitaretab - guitar tabs
Song name
# A B C D E F G H I J K L M N O P Q R S T U V W X Y Z

Aquabats - Waterslides tab

Intro

the intro is just keys and bass but if you want them, the chords are Am G and B.

Intro B
----------------------------------|
----------------------------------|
----------------------------------|
----------------------------------|x 4
--------5-5-7-7-3-3333------------|
-3-3333----------------7-7-5-5----|

Verse
-3-----5-----7-----8--------------|
-3-x4--7-x4--8-x4--8-x4-----------|
-4-----7-----9-----9--------------| remember to only play upsrokes
----------------------------------|
----------------------------------|
----------------------------------|

Pre-Chorus

same as intro A

Chorus
-3---5---7---3--------------------|
-3---7---8---5--------------------|
-4---7---9---5--------------------|figure out the strum pattern
-5---7---9---5--------------------|by listening to the song
-5---5---7---3--------------------|
-3--------------------------------|

Solo?
its played over the verse chords
[ Tab from: http://www.guitaretab.com/a/aquabats/83674.html ]
----------------------------------|
----------------------------------|
----------------------------------|
----------------------------------|
--------2-5~~--5-7-5-7-5~~--------|
-3~~--3---------------------------|

----------------------------------|
----------------------------------|
----------------------------------|
----------------------------------|
-5-5-3~--2-3-2-3-2----------------|
--------------------3-------------|

----------------------------------|
----------------------------------|
----------------------------------|x2
----------------------------------|
-----------------55-3-2-3-2-3-2~--|
-3-3-5--3-5-5-3~~-----------------|


Song Order

Intro A x2
Intro B x4
Verse x4
Interlude (keys only)
Verse x4
Intro A x1
Chorus x4
Solo (maybe) x2
Bridge (no guitar)
Chorus x8
Intro B x2
Intro A x2
Am Chord to reslove tension

"Meanwhile, back in the awesome throne room..."


Thatsabout it. please rate this its my first tab.  peace dawgs.


  Sh-ane
Related for Waterslides tab
Advertisement will be closed in 10 seconds