Song name
# A B C D E F G H I J K L M N O P Q R S T U V W X Y Z

Aquabats - Hot Summer Nights Wont Last Forever tab

The Aquabats
Hot Summer Nights Won't Last Forever
Charge

Tabbed By: Mickey Iotov

Intro A
E|---------8--------8----8---------------10--------10---10--------|
B|--10--10---10--10---10---10-10---11--11---11--11----11--11--11--|
G|----------------------------------------------------------------|  
D|----------------------------------------------------------------|  
A|----------------------------------------------------------------|
E|----------------------------------------------------------------|
                                                                      
E|-------6-------6---6--------------8--------8----8---------------|   
B|--8--8---8---8---8---8-8---10--10---10--10---10---10--10--------|
G|----------------------------------------------------------------|  
D|----------------------------------------------------------------|  
A|----------------------------------------------------------------|
E|----------------------------------------------------------------|

Intro B
E|---------8--------8----8---------------10--------10---10--------|
B|--10--10---10--10---10---10-10---11--11---11--11----11--11--11--|
G|----------------------------------------------------------------|  
D|----------------------------------------------------------------|  
A|----------------------------------------------------------------|
E|----------------------------------------------------------------|

E|-------6-------6---6--------------8----------8---------8--------|
B|--8--8---8---8---8---8-8---10--10---10----10--10----10---10-----|
G|---------------------------------------10--------10---------10--|  
D|----------------------------------------------------------------| 
A|----------------------------------------------------------------|
E|----------------------------------------------------------------|

Verse 1
E|----------------------------------------------------------------|
B|----------------------------------------------------------------|
G|-3-3-3-3--5-5-5-------------------------------------------------|  
D|-3-3-3-3--5-5-5--3-3-3-3-3-3-3-3--------------------------------| 
A|-1-1-1-1--3-3-3--3-3-3-3-3-3-3-3--------------------------------|
E|-----------------1-1-1-1-1-1-1-1--------------------------------|

E|----------------------------------------------------------------|
B|----------------------------------------------------------------|
G|-3-3-3-3--5-5-5/10-10-10-10-10-10-10-10-------------------------|  
D|-3-3-3-3--5-5-5/10-10-10-10-10-10-10-10-------------------------| 
A|-1-1-1-1--3-3-3/8--8--8--8--8--8--8--8--------------------------|
E|----------------------------------------------------------------|

E|----------------------------------------------------------------|
B|----------------------------------------------------------------|
G|-3-3-3-3--5-5-5------------------------1010-99------1010-99-----|  
D|-3-3-3-3--5-5-5--3-3-3-3-3-3-3-3--77-88-------77-88-------------| 
A|-1-1-1-1--3-3-3--3-3-3-3-3-3-3-3--------------------------------|
E|-----------------1-1-1-1-1-1-1-1--------------------------------|

Bridge
E|----------------------------------------------------------------|
B|----------------------------------------------------------------|
G|-3------5------3------5-----------------------------------------|  
D|-3------5------3------5-----------------------------------------| 
A|-1------3------1------3-----------------------------------------|
E|----------------------------------------------------------------|

Verse 2
E|-5--5--5----5--5--5/6--6----3--3--3----3--3/5--5----------------|
B|-6--6--6----6--6--6/8--8----4--4--4----4--4/6--6----------------|
G|----------------------------------------------------------------|  
D|----------------------------------------------------------------|
A|----------------------------------------------------------------|
E|----------------------------------------------------------------|


Song Order

Intro A x2
Intro B
Verse 1 x2
Bridge
Verse 2 x2
Intro A x2
Intro B
Verse 1 x2
Verse 2 x4
Verse 1 x2

Then Keyboard & Mc calling his sweetheart.

Tap to rate this tab
# A B C D E F G H I J K L M N O P Q R S T U V W X Y Z