Song name
# A B C D E F G H I J K L M N O P Q R S T U V W X Y Z

Aquabats - Nerd Alert tab

Help us improve GuitareTab! Take a short survey!
Intro:
|--------------------------------|
|--------------------------------|
|--------------------------------|
|----2-------------7-------------|
|--3---3----0----5---5--0-0h2----|
|---------1---1----------------3-|

Verse/Chorus
|------------------------------------------|
|------------------------------------------|
|--5-5-5-5-10-10-10-10-7-7-7-7-12-12-12-12-|
|--5-5-5-5-10-10-10-10-7-7-7-7-12-12-12-12-|
|--3-3-3-3-8--8--8--8--5-5-5-5-10-10-10-10-|
|------------------------------------------|
listen for strumming
For the verse just start out with the individual chords

still working on solo
Related for Nerd Alert tab