Song name
# A B C D E F G H I J K L M N O P Q R S T U V W X Y Z

Aquabats - Sequence Erase Live tab

E|-------------------------------------------|
B|-------------------------------------------|
G|--9--9---11--9---12--11---14--12---15--16--|
D|--x--x---x---x---x---x----x---x----x---x---|
A|--7--6---9---7---10--9----12--10---13--14--|
E|-------------------------------------------|

E|--12----12p11p10p9-11p10p9p8-----|
B|--x------------------------------|
G|--9------------------------------|
D|---------------------------------|
A|---------------------------------|
E|---------------------------------|

E|---------------------------------|
B|---------------------------------|
G|--11-11-9------------------------|
D|--x--x--x------------------------|
A|--9--9--7------------------------|
E|---------------------------------|

E|---------------------------------------|
B|---------------------------------------|
G|---------------------6-6-6-6--5-5-5-5--|
D|---5-5-5-5-5-5-5-5--8-8-8-8--7-7-7-7---|
A|--7-7-7-7-7-7-7-7----------------------|
E|---------------------------------------|
Pm....................................... they play this part alot more live than they 
on the album cause mc bat commander talks to the "kids"

E|--3--3---|
B|--3--2---|
G|--0--3---|
D|--0------|
A|--2------|
E|--3------|
Tap to rate this tab
# A B C D E F G H I J K L M N O P Q R S T U V W X Y Z