Song name
# A B C D E F G H I J K L M N O P Q R S T U V W X Y Z

Aquabats - Anti-matter tab

ok, im not 100% sure about the bridge here, but i know the intro and the verse are alright.


E----------------------------------------------------------------------|
B----------------------------------------------------------------------|
G----------------------------------------------------------------------|
D-------------------------5--------------------------------------------|
A--7-----------4-5-4-5------------7----------4-5-4-5-------------------|
E------4-4-5--------------------------4-4-5-------------7--------------|
   (do this 2 times)

Allthrought the verse and pre chrousplay this
E----------------------------------------------------------------------|
B----------------------------------------------------------------------|
G-------9--------------------------------------------------------------|
D-------9--------------------------------------------------------------|
A-------7--------------------------------------------------------------|
E-------0--------------------------------------------------------------|
    it sounds all good.

the chrous is ver simple

E                    A                    D
Hey kids            Not a lot             Look what


Now the bridge........ it's something like,

E C# and then either A to B ro something easy like that.


the solo, no idea, but the rest is good
Tap to rate this tab
# A B C D E F G H I J K L M N O P Q R S T U V W X Y Z