Song name
# A B C D E F G H I J K L M N O P Q R S T U V W X Y Z

Aqualung - Easier To Lie tab

To bear the weight...
E|--2--2----2-------2----2----|-----2----2-------2----2----|
B|--0--0----0-------0----0----|-----0----0-------0----0----|
G|---------------3------------|--1-------------------------|
D|----------------------------|---------------4------------|
A|----------------------------|----------------------------|
E|----------------------------|----------------------------|

       
E|-----2----2-------2----2----|-----2----2-------------|
B|-----0----0-------0----0----|-----0----0-------------|
G|--1-------------------------|------------------------|
D|---------------1------------|--2---------------------|
A|----------------------------|---------------2--------|
E|----------------------------|------------------------|

And honestly...
E|-----2----2-------2----2----|-----2----2-------2----2----|
B|--0--0----0-------0----0----|-----0----0-------0----0----|
G|---------------3------------|--1-------------------------|
D|----------------------------|---------------4------------|
A|----------------------------|----------------------------|
E|----------------------------|----------------------------|

       
E|-----2----2-------2----2----|-----2----2-------------|
B|-----0----0-------0----0----|-----0----0-------------|
G|--1-------------------------|------------------------|
D|---------------1------------|--2---------------------|
A|----------------------------|---------------2--------|
E|----------------------------|------------------------|

Repeat 2nd verse 'till the end.
Tap to rate this tab
# A B C D E F G H I J K L M N O P Q R S T U V W X Y Z