Song name
# A B C D E F G H I J K L M N O P Q R S T U V W X Y Z

Aqueduct - Lying In The Bed Ive Made tab

Highlighted       Show chord diagrams
Most of this song is actually keyboard and synthesiser. If you play this
while singing it will sound right and You should get through playing along
with the album just fine, but the fact is that it won't sound identical
because we are changing instruments. With that obvious statement out of the
way, on with the kick-ass song.

Main Riff. Start in a cadd9 position and use your index finger for the 6th
string, with your pinky playing the last note. It's easier than it sounds,
but I don't recommend picking for this as it's all over the fret board. It
sounds better if you let the notes ring out as much as possible. Note that
this is identical to the piano line after the intro.
--------------2--0--|
--------------------|
-----------0--------|   X2
-----2--0-----------|
--3-----------------|
--------------------|

--------------2--0--------------2--3--|
--------------------------------------|
-----------0-----------------0--------|
-----2--0--------------2--0-----------|
--------------------------------------|
--0-----------------0-----------------|


I've been a father to you all
In spite of what you've heard
and for the most part,
I've been a perfect stranger too
In spite of wat you've heard
You've made me painfull aware
Of what you think of me
And for the most part,
O'm starting to believe it true
I put my faith in you

thats why I'm singing saying

G     Eb      Ab
Sorry songs I sing
         C
To amuse myself
                    G
I need to hear your voice
      Eb     Ab
Carry all my weight

Ab C F (note: This sounds weird, but If while playing along with the song F was the 
chord I could find)

main riff (there are some variations and Iv'e included them at the end if you want to 
them)

I've been a lover to the ones
You'd never realize
And for the most part,
I've been a liar all my life
In spite of what you've heard
a centimeter of a man
I measure up to be
And for the most part,
I might be lonely all my life
I'm lying in the bed I've made

G     Eb      Ab
Sorry songs I sing
         C
To amuse myself
                    G
I need to hear your voice
      Ab
Carry on

So I'm singing saying

G     Eb      Ab
Sorry songs I sing
         C
To amuse myself
                    G
I need to hear your voice
      Eb     Ab      C
Carry all my weight
                   F    Eb
I know its not to late
               G      (I'm not sure about this G)
your making a mistake

At this point he sings all of the verses at once, So I won't bother transcribing . Same 
as before.

Ending notes:
--8---------------|
-----10-8---------|
-----------9------|
--------------10--|
------------------|
------------------|
--

alternate riff (*same bass note as before):
-----0-----3--2--0--|
--------3-----------|
--------------------|
--------------------|
--*-----------------|
--------------------|

Drop off at end of riff:
--3-2-0---------|
-------3-1-0----|
-------------2--|
----------------|
----------------|
----------------|
aqueduct's website: http://www.aqueductisgoodmusic.com/ As an added bonus, you can 
this song for free!
Tap to rate this tab
 
# A B C D E F G H I J K L M N O P Q R S T U V W X Y Z