Song name
# A B C D E F G H I J K L M N O P Q R S T U V W X Y Z

Aqueduct - Growing Up With Gnr chords

Highlighted       Show chord diagrams
-------------------------------------------------------------------------------
 	                     GROWING UP WITH GNR - Aqueduct
-------------------------------------------------------------------------------
Tabbed by: Pat Malavi
pat.malavi@gmail.com

Am    x0221x
Bm7   x2021x
C     x3201x
F     13321x
G     32003x
Dsus2 xx0230

Riff 1
e|---------------------------------------------------------------------------|
B|---------------------------------------------------------------------------|
G|---------------------------------------------------------------------------|
D|---------------------------------------------------------------------------|
A|---0-0-0---0-2-2---2-3-3---3-5-5---5---------------------------------------|
E|-------------------------------------1-1---1-3-3---3-5-5---5-7-7-----------|

Riff 2
e|---------------------------------------------------------------------------|
B|---------3---------3---------3---------3-----------------------------------|
G|-------2---------2---------2---------0-------------------------------------|
D|---0-----------------------------------------------------------------------|
A|-------------3---------2---------------------------------------------------|
E|---------------------------------3-----------------------------------------|


Riff 1
Whenever, whenever, whenever you fall apart
Riff 1
Forget her, forget her, forget her, she broke your heart
Riff 1
Whenever, whenever, whenever you're wrong or right
Riff 1
Forget her, forget her, forget her, she's torn apart


Am        Bm7           C
I've been walking these streets tonight
F                     G                         C
Just trying to get it right, I've got to get it right
                F                        Riff 2
Whenever you're home you're never really home
Am             Bm7         C
Well I've been living in a fantasy
F                     G                         C
Just trying to get it right, I've got to get it right
                F                   Riff 2
Whenever you're lonely you are not alone


Riff 1
Whenever, whenever, whenever you fall apart
Riff 1
Forget her, forget her, forget her, she's torn apart


Am      Bm7              C
Oh baby you were looking foxy tonight
F                 G                        C
Is it the way you walk or just the way you talk
                   F                          Riff 2
You're playing the part that's gonna break my heart
Am                Bm7                 C
Well girl there's something about the way you act
F                       G                           C
You will be crushing my soul and won't be paying me back
              F                      Riff 2
Why can't you be the way you used to be way back when


C          F                      Dsus2               G
I was only twelve, damn it all to hell, I was feeling fine
C           F               Dsus2                    G
Hearing Axl Rose on the radio singing Sweet Child of Mine


Riff 1
Whenever, whenever, whenever you fall apart
Riff 1
Forget her, forget her, forget her, she broke your heart


C          F                      Dsus2               G
I was only twelve, damn it all to hell, I was feeling fine alright
C           F               Dsus2                    G
Hearing Axl Rose on the radio singing Sweet Child of Mine all night
C              F                               Dsus2                       G
Welcome to the jungle, you're much too much to handle, I wish I weren't in love with you
C           F               Dsus2             G
Hearing Axl Rose on the radio remembering the good times with you


Am        Bm7         C
I've been living in a fantasy
F                     G                         C
Just trying to get it right, I've got to get it right
                F                   Riff 2     Am
Whenever you're lonely you are not alone

Tap to rate this tab
 
# A B C D E F G H I J K L M N O P Q R S T U V W X Y Z