Song name
# A B C D E F G H I J K L M N O P Q R S T U V W X Y Z

Aquilonia - Alexia tab

-----------------------------------------------------------------------------
			     ALEXIA - Aquilonia
-----------------------------------------------------------------------------
Tabbed by: Aureschnoe
Email: aureschnoe@yahoo.fr

Tuning: EADGBe

Intro (Clean)
e|--7--7----8--8----3--3----5--5--5--5--|
B|--8--8----8--8----3--3----7--7--7--7--|
G|--9--9----9--9----4--4----7--7--7--7--|x6
D|--9--9----10-10---5--5----7--7--7--7--|
A|--7--7----10-10---5--5----5--5--5--5--|
E|--7--7----8--8----3--3----5--5--5--5--|

Verse (Clean)
e|--7--7----8--8----3--3----5--5--5--5--|
B|--8--8----8--8----3--3----7--7--7--7--|
G|--9--9----9--9----4--4----7--7--7--7--|x4
D|--9--9----10-10---5--5----7--7--7--7--|
A|--7--7----10-10---5--5----5--5--5--5--|
E|--7--7----8--8----3--3----5--5--5--5--|

Chorus (Disto)
e|-----------------------------------------------------------------------|
B|-----------------------------------------------------------------------|
G|--9-x-x-x-x-x-x-x-------------------------------------8-x-x-8-x-8-x-x--|
D|--9-x-x-x-x-x-x-x--10-x-x-x-x-x-x-x--5-x-x-x-x-x-x-x--8-x-x-8-x-8-x-x--|x4
A|--7-x-x-x-x-x-x-x--10-x-x-x-x-x-x-x--5-x-x-x-x-x-x-x--5-x-x-5-x-5-x-x--|
E|-------------------8--x-x-x-x-x-x-x--3-x-x-x-x-x-x-x-------------------|


Intro  x1
Verse  x1
Chorus x1
Verse  x2
Chorus x1
Solo
Verse  x2
Chorus x1
Verse  x2
Chorus x1
Solo

Lyrics & song : http://aquilonia-music.skyrock.com/1682349566-Tempete-celtique-Alexia-2004.html

************************************

| /   slide up
| \   slide down
| h   hammer-on
| p   pull-off
| ~   vibrato
| +   harmonic
| x   Mute note
| b   Bend
| pb  Pre-bend
| br  Bend release
| pbr Pre-bend release
| brb Bend release bend

************************************
Official Website : http://aquilonia-music.skyrock.com/
Tap to rate this tab
 
# A B C D E F G H I J K L M N O P Q R S T U V W X Y Z