Song name
# A B C D E F G H I J K L M N O P Q R S T U V W X Y Z

Ar Rahman - Jai Ho tab

            PM--------(only 6th string)-------------l

e) l------------------------------------------------------|l
B) l------------------------------------------------------|l
G)|-------------------------------------------------------|l
D)|-------------------------------------------------------|l
A)|--7---7---7---8---8---8---7---7---7---7---5---7--------|l
E)|-----5---5---5---5---5---5---5---5---5-----------------|l


e)|--------------------------------20-20----|l
B)|--17-18-17-17-18-17-17-18-17-17----------|l
G)|-----------------------------------------|l
D)|-----------------------------------------|l
A)|-----------------------------------------|l
E)|-----------------------------------------|l


e)|----20---------------------------------------------18-20-18-20-21-20-21-23-21-24-24-|
B)|------15-17-15-17-18-17-18-20-18-20-22-20-22-24-22----------------------------------|
G)|------------------------------------------------------------------------------------|
D)|------------------------------------------------------------------------------------|
A)|------------------------------------------------------------------------------------|
E)|------------------------------------------------------------------------------------|

( Listen to the song for the rythm )

Any suggestions e-mail me ^^     nestor_109s@hotmail.com

If you want the chords go here:

http://www.ultimate-guitar.com/tabs/a/ar_rahman/jai_ho_ver2_crd.htm

If you want the lyrics go here:

http://www.6lyrics.com/music/a_r_rahman/lyrics/jai_ho1.aspx
Tap to rate this tab
# A B C D E F G H I J K L M N O P Q R S T U V W X Y Z