Song name
# A B C D E F G H I J K L M N O P Q R S T U V W X Y Z

Ar Rahman - Challa chords

Highlighted       Show chord diagrams
CHALLA - Jab Tak Hai Jaan

Intro -
Dm Am D G E

e------------1--------------1-----------------|
B---1-----3-----3-3-3----1------3----3-3-3----|
G------2--------------------------------------|
D---------------------------------------------|
A---------------------------------------------|
E---------------------------------------------|

e-------------0-------------------------------|
B---1-----3---------1-------------------------|
G--------------------------2-------4---3----2-|
D---------------------------------------------|
A---------------------------------------------|
E---------------------------------------------|

(You may later make your own variations or alterations like sliding and stuff when you 
are well practiced of these tabs and have heard the song many times)

Chorus..

Challa ki labhda phire
Am...............C....

Challa ki labhda phire
Am..................Dm

Yaaron main ghar keda
F..................C.

Lokan toh puchda phire
Dm...............E....

Challa hansda phire
Am.................

Challa ronda phire
Dm................

Challa gali gali rulda phire
G.........................C.

Challe tu sab da
Am..............

Challe tera koi nai
Dm.................

Challa gali gali rulda phire
G.........................C/E

Challa ki labda phire
F.........G.....E....

(Solo Ends on a G major chord)

Verse-1

  Rang satrangi de
  Am......C.....Dm

  Bulbulan di boli
  .........C....Am

  Dhup de pairi chale
  ........F........Dm

  Chhawaan di lai doli
  ............C......E   Repeat x2

(Same for the rest)

Hun kaale kaale badalan vich chand labda
Am...........................Dm.........

Goongiyan hawaan diyaan awajaa sun da
G..................................C.

Yaaro aase paase wasda hai yaar mera
......Am...................Dm.......

Dikhda ni ohdi khusbuaan sungdaan
....G....................E........
Tap to rate this tab
# A B C D E F G H I J K L M N O P Q R S T U V W X Y Z