Song name
# A B C D E F G H I J K L M N O P Q R S T U V W X Y Z

Arab Strap - Go Back To The Sea tab

Tab; Arab Strap
Song : Go Back To The Sea   (from the the last romance bonus track US)
by: jofo walker
25/7/07


 chords are Bm A5 C#m5

Verse

            Bm                               A5
e--------------------------------------------------------------|
b----------------------3----------------------0----------------|
g--------------4----------4---------------4-----------------4--|
d----------4-----------------4--------4----------------4-------|
a------2----------2-------------0--------------0---------------|
E--------------------------------------------------------------|

chorus
                    C#m5                    Bm5                    A5
e---------------------0----------------0---------------------0--|
b----------------0-----0--------0------0---------------0-----0--|
g-------------4----4---------6----6-----------------6-----6-----|
d---------6---------------4--------------------2----------------|
a---------------------------------------------------------------|
E---------------------------------------------------------------|
                        2x                                 1x                   1x


 (guitar fill)
e----------------------------------------------------------------------------|
b--------------5 /s/7----------------------------3---------------------------|
g------------------------------------------------------^ let it ring---------|
d----------------------------------------------------------------------------|
a----------------------------------------------------------------------------|
E----------------------------------------------------------------------------|

Fookin class song by the boys again.

should have been on ten years of tears but i supose it was because its got the same 
as "rocket, take your turn " .

More malcolm Middleton and 'strap tabs please!
Tap to rate this tab
# A B C D E F G H I J K L M N O P Q R S T U V W X Y Z