Song name
# A B C D E F G H I J K L M N O P Q R S T U V W X Y Z

Arakain - Gilotina tab

ACOUSTIC INTRO IN THE BEGINNING ==========================> ELECTRIC GUITAR
-----0----------0--------0----------0--------0----------0--[---------------]
----0-0------0---0------0-0------0---0------0-0------0---0-[---------------]
---3---3----3----------3---3----3----------3---3----3------[---------------]
--2-----2--2----------2-----2--2----------2-----2--2-------[---------------]
-----------------------------------------------------------[---------------]
0--------0----------3--------3----------2--------1---------[0-0-0-0-0-0-0-0]
                                                            . . . . . . . .
                                                              REPEAT 10X
------[---------------------------------]-------------------[--------------|
------[---------------------------------]----------2h3h5----[--------------|
------[---------------------------------]-----2h3h5---------[--------------|
------[---------------------------------]2h3h5--------------[--------------|
-5--4-[-----------1h2p1------------5--4-]----------------5--[----------1h2p|
-3--2-[00000000000-----00000000000-3--2-]----------------3--[00000000000---|
                  REPEAT 4X                                     REPEAT 2X
------------------]--------------------------------------------------------|
------------------]--------------------------------------------------------|
------------------]--------------------------------------------------------|
------------------]--------------------------------------------------------|
1------------5--4-]--------------------------------------------------------|
-00000000000-3--2-]--------------------------------------------------------|

KEY
PALM MUTE = .
HAMMER ON = h
PULL OFF = p

LISTEN TO THE SONG SO YOU KNOW HOW FAST IT GOES. ALSO IT NEEDS TO BE FINISHED
Tap to rate this tab
 
# A B C D E F G H I J K L M N O P Q R S T U V W X Y Z