Song name
# A B C D E F G H I J K L M N O P Q R S T U V W X Y Z

Aranda - Whyyawannabringmedown chords

-------------------------------------------------------------------------------
			  Whyyawannabringmedown - Aranda
-------------------------------------------------------------------------------
Tabbed by: Pedro_FoxHound
Email:pedro_arterial_black@hotmail.com

Tuning:Standard - EADGBE
Notes from the tabber:Solo's coming,I just to get my guitar back and try to figure it out.
Won't be a problem though.Also,I'm gonnna try to make a Guitar Pro tab,
but I am only able to do it with the guitars and maybe the voices.

Let's get it on,then.

Intro

e|------x---x---x---x---x---------------------------------------------------|
B|------x---x---x---x---x---------------------------------------------------|
G|-8/10-x---x---x---x---x-------8--8----------------------------------------|
D|-8/10-x---x---x---x---x-------6--6----------------------------------------|
A|-6/8--x---x---x---x---x---------------------------------------------------|
E|------x---x---x---x---x---------------------------------------------------|

e|-------x--x--x--x--x------------------------------------------------------|
B|-------x--x--x--x--x------------------------------------------------------|
G|-8/10--x--x--x--x--x--10-8------------------------------------------------|
D|-8/10--x--x--x--x--x--8--6------------------------------------------------|
A|-6/8---x--x--x--x--x------------------------------------------------------|
E|-------x--x--x--x--x------------------------------------------------------|


Verse


e|---------------------------------------x--x--x--x-------------------------|
B|---------------------------------------x--x--x--x-------------------------|
G|-10--6--8----10--6--8--10--8--7---10---x--x--x--x-------------------------|
D|-10--6--8----10--6--8--10--8--7---10---x--x--x--x-------------------------|
A|-8---4--6-----8--4--8--8---6--5---8----x--x--x--x-------------------------|
E|--------------------6------------------x--x--x--x-------------------------|

Pre-Chorus
Quick strumming from C# to E (powerchords),playing each of them twice.

e|---------------------------------------------------------------------------|
B|---------------------------------------------------------------------------|
G|-6--7--8--9----------------------------------------------------------------|
D|-6--7--8--9----------------------------------------------------------------|
A|-4--5--6--7----------------------------------------------------------------|
E|---------------------------------------------------------------------------|
This part leads directly to the F powerchord in the chorus

Chorus
Note:Listen to the song to figure out the right strumming pattern
Other Note:Play it 4 times per chorus
e|---------------------------------------------------------------------------|
B|---------------------------------------------------------------------------|
G|-10------6-----------------------------------------------------------------|
D|-10--6---6---8-------------------------------------------------------------|
A|-8---6---4---8-------------------------------------------------------------|
E|-----4-------6-------------------------------------------------------------|

"Pre-Bridge"
e|---------------------------------------------------------------------------|
B|---------------------------------------------------------------------------|
G|----------------------------------------------------12---------------------|
D|-8/10--10--10--10/12--12--12--12/13--13--13--13/15--10---------------------|
A|-6/8---8---8---8/10---10--10--10/11--11--11--11/13-------------------------|
E|---------------------------------------------------------------------------|

Bridge

e|---------------------------------------------------------------------------|
B|---------------------------------------------------------------------------|
G|-6-----10--8-----6-------8-------------------------------------------------|
D|-6--8--10--8-----6---8---8-------------------------------------------------|
A|-4--8--8---6-----4---8---6-------------------------------------------------|
E|----6----------------6-----------------------------------------------------|


This is how the song goes.Please note that each chorus is composed by 4 of the Chorus 
in the tab above,so for each chord you should play the notes 4 times:

Intro (2x)
Verse
Pre-Chorus
Chorus
Verse
Pre-Chorus
Chorus Pre-Bridge
Bridge
Solo
Chorus until the end (Rhythm Guitar) / Chorus x2 and Outro (Lead Guitar)
Tap to rate this tab
 
# A B C D E F G H I J K L M N O P Q R S T U V W X Y Z