Song name
# A B C D E F G H I J K L M N O P Q R S T U V W X Y Z

Aranda - Satisfied tab

Artist: Aranda
Song: Satisfied
Tabber: Andreas Karlsson from the Swedish band Chronic Desire
Tuned: Drop-D
Info: This is the way i play this song, 
doesnt say its 100% but it feels pretty close.
Figure out the strumming pattern yourself.
~ = Let ring. \ = Downslide.

Intro [Clean]
e|------------------------------------------------------|
B|-3-----------------8-8-7-7----------------------------|
G|-3----7----8-8-8-8-7-7-7-7----------------------------|
D|-5----7----8-8-8-8-7-7-7-7----------------------------|
A|-5----5----6-6-6-6-5-5-5-5----------------------------|
D|-5----0-----------------------------------------------|
Light pm     - - - - - - - -

Verse [Clean]
e|------------------------------------------------------|
B|------------------------------------------------------|
G|------------------------------------------------------|
D|-5-5-5-5-4-4-4-4-3-3-3-3-2-2-2-2----------------------|
A|-5-5-5-5-5-5-5-5-5-5-5-5-3-3-3-3----------------------|
D|-5-5-5-5----------------------------------------------|

e|------------------------------------------------------|
B|------------------------------------------------------|
G|------------------------------------------------------|
D|-5-5-5-5-4-4-4-4-3-3-3-3-2-2-2-2-5-5-5-5--------------|
A|-5-5-5-5-5-5-5-5-5-5-5-5-3-3-3-3-3-3-3-3--------------|
D|-5-5-5-5----------------------------------------------|

Pre-Chorus [Clean]
e|------------------------------------------------------|
B|-------------------------8-8-7-7----------------------|
G|---------7-7-7-7-8-8-8-8-7-7-7-7----------------------|
D|-5-5-5-5-7-7-7-7-8-8-8-8-7-7-7-7----------------------|
A|-5-5-5-5-5-5-5-5-6-6-6-6-5-5-5-5----------------------|
D|-5-5-5-5-0-0-0-0--------------------------------------|

e|-----------------[DISTORTION!!!!!!!!!!!!!!!!!]--------|
B|------------------------------------------------------|
G|---------7-7-7-7-8-8-8-8-8-8-8-8-7-7-7-7-7-7-\--------|
D|-5-5-5-5-7-7-7-7-8-8-8-8-8-8-8-8-7-7-7-7-7-7-\--------|
A|-5-5-5-5-5-5-5-5-6-6-6-6-6-6-6-6-5-5-5-5-5-5-\--------|
D|-5-5-5-5-0-0-0-0-----------------------------\--------|
PM                 - - - - - - - - 

Chorus [Dist]
e|-----------------------------------------------------------------|
B|-----------------------------------------------------------------|
G|------------------7-7-7-7-7-7-7-7-8-8-8-8-8-8-8-8-7-7-7-7-7-7-7-7|
D|--5-5-5-5-5-5-5-5-7-7-7-7-7-7-7-7-8-8-8-8-8-8-8-8-7-7-7-7-7-7-7-7|
A|--5-5-5-5-5-5-5-5-5-5-5-5-5-5-5-5-6-6-6-6-6-6-6-6-5-5-5-5-5-5-5-5|
D|--5-5-5-5-5-5-5-5-0-0-0-0-0-0-0-0--------------------------------|

e|-----------------------------------------------------------------|
B|-----------------------------------------------------------------|
G|------------------7-7-7-7-7-7-7-7-8-8-8-8-8-8-8-8-7~-------------|
D|--5-5-5-5-5-5-5-5-7-7-7-7-7-7-7-7-8-8-8-8-8-8-8-8-7~-------------|
A|--5-5-5-5-5-5-5-5-5-5-5-5-5-5-5-5-6-6-6-6-6-6-6-6-5~-------------|
D|--5-5-5-5-5-5-5-5-0-0-0-0-0-0-0-0--------------------------------|
[Guitar 2] 
e|----------3------------------------------------------------------|
B|------------3-------------6---------------8-------8~------7~-----|
G|------3-------3-------7-----7---7-----8-----8---8-7~------7~-----|
D|----5---5-------5---7---7-----7-----8---8-----8---7~------7~-----|
A|--5---------------5---------------6---------------5~------5~-----|
D|-----------------------------------------------------------------|

Verse [Clean]
e|------------------------------------------------------|
B|------------------------------------------------------|
G|------------------------------------------------------|
D|-5-5-5-5-4-4-4-4-3-3-3-3-2-2-2-2----------------------|
A|-5-5-5-5-5-5-5-5-5-5-5-5-3-3-3-3----------------------|
D|-5-5-5-5----------------------------------------------|

e|------------------------------------------------------|
B|------------------------------------------------------|
G|------------------------------------------------------|
D|-5-5-5-5-4-4-4-4-3-3-3-3-2-2-2-2-5-5-5-5--------------|
A|-5-5-5-5-5-5-5-5-5-5-5-5-3-3-3-3-3-3-3-3--------------|
D|-5-5-5-5----------------------------------------------|

Pre-Chorus
e|-----------------[DISTORTION!!!!!!!!!!!!!!!!!]--------|
B|------------------------------------------------------|
G|---------7-7-7-7-8-8-8-8-8-8-8-8-7-7-7-7-7-7-\--------|
D|-5-5-5-5-7-7-7-7-8-8-8-8-8-8-8-8-7-7-7-7-7-7-\--------|
A|-5-5-5-5-5-5-5-5-6-6-6-6-6-6-6-6-5-5-5-5-5-5-\--------|
D|-5-5-5-5-0-0-0-0-----------------------------\--------|
PM                 - - - - - - - - 

Chorus [Dist] x2
e|-----------------------------------------------------------------|
B|-----------------------------------------------------------------|
G|------------------7-7-7-7-7-7-7-7-8-8-8-8-8-8-8-8-7-7-7-7-7-7-7-7|
D|--5-5-5-5-5-5-5-5-7-7-7-7-7-7-7-7-8-8-8-8-8-8-8-8-7-7-7-7-7-7-7-7|
A|--5-5-5-5-5-5-5-5-5-5-5-5-5-5-5-5-6-6-6-6-6-6-6-6-5-5-5-5-5-5-5-5|
D|--5-5-5-5-5-5-5-5-0-0-0-0-0-0-0-0--------------------------------|

Chorus 2 [Dist]
e|-----------------------------------------------------------------|
B|-----------------------------------------------------------------|
G|------------------7-7-7-7-7-7-7-7-8-8-8-8-8-8-8-8-7~-------------|
D|--5-5-5-5-5-5-5-5-7-7-7-7-7-7-7-7-8-8-8-8-8-8-8-8-7~-------------|
A|--5-5-5-5-5-5-5-5-5-5-5-5-5-5-5-5-6-6-6-6-6-6-6-6-5~-------------|
D|--5-5-5-5-5-5-5-5-0-0-0-0-0-0-0-0--------------------------------|
[Guitar 2] 
e|----------3------------------------------------------------------|
B|------------3-------------6---------------8-------8~------7~-----|
G|------3-------3-------7-----7---7-----8-----8---8-7~------7~-----|
D|----5---5-------5---7---7-----7-----8---8-----8---7~------7~-----|
A|--5---------------5---------------6---------------5~------5~-----|
D|-----------------------------------------------------------------|

Outro [Clean]
e|---------------------|
B|-3-------------------|
G|-3----7----8---------|
D|-5----7----8---------|
A|-5----5----6---------|
D|-5----0--------------|

Hope you liked it! Its an awesome and meningsful and powerful song! 
Comment and rate it please! xXx

Tap to rate this tab
 
# A B C D E F G H I J K L M N O P Q R S T U V W X Y Z