Song name
# A B C D E F G H I J K L M N O P Q R S T U V W X Y Z

Aranda - Satisfied tab

Okay so this is my first tab, I find tabbing to be time taking but anyway I had alot of
requests on my youtube cover of this song to make a tab or lesson, so I chose a tab lol.
This Is how I play it from what I remember, I didnt have a guitar in hand but either way 
its very accurate. Ive seen Aranda Play a bunch and have tried watching Dameons playing
closely, For a lot of these big chords he uses his thumbs for the top strings, I use a 
different method, Hope You enjoy! PleaseFor reference You can check my cover out on 
www.youtube.com/halloweentwentyfour7   its somewhere in there lol

Tuning Drop D

Intro:

E|----3--------------------------------------------|
B|----3----6----8----8----8----8----8----8----7----|
G|----3----7----8----8----8----8-------------------|
D|----5----7----8----8----8----8----7----7----7----|
A|----5----5----6----6----6----6----5----5----5----|
D|-------------------------------------------------|

Verses 1 and 2 below: Strum each chord 4 times, follow beat of song

E|-----------------------------|
B|----3----3----3----1----4----|
G|----3----3----3----0----5----|
D|----5----5----3----2----5----|
A|----5----5----5----3----3----|
D|----5----4----3--------------|

Prechorus: Go distorted when on 6th fret chord the 2nd time around

E|-------------------------------------------------------------------------------|
B|----3----6----8----8----7----3----6--------------------------------------------|
G|----3----7----8--------------3----7----8----8----8----8----7----7----7----7----|
D|----5----7----8----7----7----5----7----8----8----8----8----7----7----7----7----|
A|----5----5----6----5----5----5----5----6----6----6----6----5----5----5----5----|
D|----5------------------------5-------------------------------------------------|

Chorus 1 and 2, This is also the bridge riff, on the bridge end with the notes that end
in the intro, refer to intro section

E|------------------------------------------------------|
B|----3----6--------------------------------------------|
G|----3----7----8----8----8----8----7----7----7----7----|
D|----5----7----8----8----8----8----7----7----7----7----|
A|----5----5----6----6----6----6----5----5----5----5----|
D|----5-------------------------------------------------|

Preverse 2 Lead:

E|--------------3-----------------------------------------------------------------|
B|--------3-----------3-----------------6-----------------------8-----------8--7--|
G|-----3-----3-----3-----3--------7-----------7-----------8-----------8-----------|
D|-----------------------------7-----7-----7-----7-----8-----8-----8-----8--7--7--|
A|--------------------------5-----------------------6-----------------------5--5--|
D|--5-----------------------------------------------------------------------------|

Outro:Strum Each Once

E|----3--------------|
B|----3----6----8----|
G|----3----7----8----|
D|----5----7----8----|
A|----5----5----6----|
D|-------------------|
Tap to rate this tab
# A B C D E F G H I J K L M N O P Q R S T U V W X Y Z