Song name
# A B C D E F G H I J K L M N O P Q R S T U V W X Y Z

Arcade Fire - Suburban War tab

Tune up the high E string up 1/2 step to F for this song.


(f)--------0---------0---------0---------7------7---------7----0--|
 b -----10---10---10---10---10--------10-----10--------10---10----|
 g ---7---------7---------9------10-----------------10------------|
 d ---0-----------------------------------------------------------|
 a ---------------------------------------------------------------|
 E ---------------------------------------------------------------|

(f)--------0---------0---------0---------7------7---------7----0--|
 b -----10---10---10---10---10--------10-----10--------10---10----|
 g ---7---------7---------9------10-----------------10------------|
 d ---0-----------------------------------------------------------|
 a ---------------------------------------------------------------|
 E ---------------------------------------------------------------|

and on and on... This is my favorite song off there new album. hope this tab helps as I 
it is as close to correct as I can get!
Tap to rate this tab
 
# A B C D E F G H I J K L M N O P Q R S T U V W X Y Z