Arcade Fire - Ready To Start tab

-------------------------------------------------------------------------------
			     Ready to start - Arcade Fire
-------------------------------------------------------------------------------
Tabbed by:Rocket7
Email:Farrandr@ymail.com

Tuning:Standard Tuning             
Theres a little switch Right here  V      I was to lazy to x the amount of strums, 
but just listen to the song and you'll get it
e|---------------------------------------------------------------------------|
B|---------------------------------------------------------------------------|
G|------------7-------------------4------------------------------------------|
D|------------7-----7-----6---4---4-7----------------------------------------|
A|------------5-----7-----6---4---2-7----------------------------------------|
E|------------------5-----4---2-----5----------------------------------------|
Chorus:
e|---------------------------------------------------------------------------|
B|---------------------------------------------------------------------------|
G|-----7-----9---------------------------------------------------------------|
D|-----7-----9---4-----------------------------------------------------------|
A|-----5-----7---4-----------------------------------------------------------|
E|---------------2-----------------------------------------------------------|



************************************

| /   slide up
| \   slide down
| h   hammer-on
| p   pull-off
| ~   vibrato
| +   harmonic
| x   Mute note
| b   Bend
| pb  Pre-bend
| br  Bend release
| pbr Pre-bend release
| brb Bend release bend

************************************
Tap to rate this tab
 
# A B C D E F G H I J K L M N O P Q R S T U V W X Y Z