Song name
# A B C D E F G H I J K L M N O P Q R S T U V W X Y Z

Arcade Fire - Crown Of Love tab

                            They say it
e|--------------------------------------|
B|--------------------------9--9-----8--|
G|--------------------------------------|
D|--------------------------------------|
A|--------------------------------------|
E|--------------------------------------|

    fades                      if you
e|--------6--------6--------6--------6--|
B|-----8--------8--------8--------8-----|
G|--------------------------------------|
D|--------------------------------------|
A|--6--------6--------6--------6--------|
E|--------------------------------------|

    let it                     love was
e|--------------------------------------|
B|-----8--6-----8--6-----8--6-----8--6--|
G|--------------------------------------|
D|--------------------------------------|
A|--8--------8--------8--------8--------|
E|--------------------------------------|

    made                       to for- 
e|--------6--------6--------6--------6--|
B|-----8--------8--------8--------8-----|
G|--------------------------------------|
D|--------------------------------------|
A|--------------------------------------|
E|--6--------6--------6--------6--------|

    -get it
e|--------------------------------------|
B|-----8--6-----8--6-----8--6-----8--6--|
G|--------------------------------------|
D|--------------------------------------|
A|--------------------------------------|
E|--7--------7--------7--------7--------|
Tap to rate this tab
# A B C D E F G H I J K L M N O P Q R S T U V W X Y Z